PrimaNota.ru - самый крупный в мире бесплатный архив песенных текстов, аккордов, табулатур и нот


Pidzama Porno - Fucking In The Church - аккорды и текст, видео

Регистрация Запомнить меня
Войти через:  Facebook Google Twitter Vk Yandex Mail.ru

Pidzama Porno - Fucking In The Church - аккорды и текст, видео

Печатать
Просмотров: 136
Fucking In The Church
Pidzama Porno
Pidżama porno - Fucking in the church
Tabbed by: damienos

Tuning: Standard


[intro]
   A5            F#5         A5            F#5
e|-------------|-----------|-------------|------------|
B|-2-2---------|-----------|-2-2---------|------------|
G|-----4-2-4-2-|-----------|-----4-2-4-2-|------------|
D|-------------|-4-2-4-2-4-|-------------|-4-2-4-2-4--|
A|-------------|-----------|-------------|------------|
E|-------------|-----------|-------------|------------|

   A5            F#5         A5            F#5
e|-------------|-----------|-------------|------------|
B|-2-2-3-2-3-2-|-----------|-2-2---------|------------|
G|-------------|-4-2-4-2-4-|-----4-2-4-2-|------------|
D|-------------|-----------|-------------|-4-2-4-2-4--|
A|-------------|-----------|-------------|------------|
E|-------------|-----------|-------------|------------|

[verse 1]
A5
When I see the pretty woman
F#5
Sitting in the church
     A5           F#5
Come on come on come on
A5
We can do it on the banche
F#5
If you only want
     A5           F#5
Come on come on come on
A5              F#5
Wrap your legs around my neck
     A5           F#5
Come on come on come on
A5              E5     D5   
Don't look back on the priest
     A5          
Come on

[verse 2]
A5
When I see the pretty woman
F#5
Sitting in the church
     A5           F#5
Come on come on come on
A5
We can do it on the banche
F#5
If you only want
     A5           F#5
Come on come on come on
A5              F#5
Wrap your legs around my neck
     A5           F#5
Come on come on come on
A5              E5     D5   
Don't look back on the priest
     A5          
Come on

[chorus]
D5
Mister, You can fuck my sister
A5
She is really pretty girl
D5
Mister, You can fuck my sister
E5
Everything will be OK
D5
Mister, You can fuck my sister
A5 A5 A5 A5
D5
Mister, You can fuck my sister
     E5
Just only say, just only say

[intro]
   A5            F#5         A5            F#5
e|-------------|-----------|-------------|------------|
B|-2-2---------|-----------|-2-2---------|------------|
G|-----4-2-4-2-|-----------|-----4-2-4-2-|------------|
D|-------------|-4-2-4-2-4-|-------------|-4-2-4-2-4--|
A|-------------|-----------|-------------|------------|
E|-------------|-----------|-------------|------------|

   A5            F#5         A5            F#5
e|-------------|-----------|-------------|------------|
B|-2-2-3-2-3-2-|-----------|-2-2---------|------------|
G|-------------|-4-2-4-2-4-|-----4-2-4-2-|------------|
D|-------------|-----------|-------------|-4-2-4-2-4--|
A|-------------|-----------|-------------|------------|
E|-------------|-----------|-------------|------------|

[verse 3]
A5
When I see the pretty woman
F#5
Sitting in the church
     A5           F#5
Come on come on come on
A5
We can do it on the banche
F#5
If you only want
     A5           F#5
Come on come on come on
A5              F#5
Wrap your legs around my neck
     A5           F#5
Come on come on come on
A5              E5     D5   
Don't look back on the priest
     A5          
Come on

[chorus]
D5
Mister, You can fuck my sister
A5
She is really pretty girl
D5
Mister, You can fuck my sister
E5
Everything will be OK
D5
Mister, You can fuck my sister
A5 A5 A5 A5
D5
Mister, You can fuck my sister
     E5
Just only say, just only say

[outro]
D5               E5     A5
Fucking, fucking in the church
     D5               E5     A5
Lets fucking, fucking in the church
D5               E5     A5
Fucking, fucking in the church
     D5               E5     A5
Lets fucking, fucking in the church
D5               E5     A5
Fucking, fucking in the church
D5               E5     A5
Fucking, fucking in the church
D5               E5     A5
Fucking, fucking in the church
D5               E5     A5
Fucking, fucking in the church

enjoy!
Добавлено: 05.09.2015
Другие материалы по этой песне:
  • Аккорды и текст

Страница создана 05.09.2015
http://primanota.ru/pidzama-porno/fucking-in-church-chords.htm
Привет, Гость.
Предлагаем пройти революционный курс по гитаре.
Подарок от PrimaNota.Ru, забирай!