PrimaNota.ru - самый крупный в мире бесплатный архив песенных текстов, аккордов, табулатур и нот


Pidzama Porno - Do Nieba Wzięci - аккорды и текст, видео

Регистрация Запомнить меня
Войти через:  Facebook Google Twitter Vk Yandex Mail.ru

Pidzama Porno - Do Nieba Wzięci - аккорды и текст, видео

Печатать
Просмотров: 152
Do Nieba Wzięci
Pidzama Porno
Pidżama porno - Do nieba wzięci
Tabbed by: damienos

Tuning: Standard

[intro]
   Em      D   C     G       C       D        G   
e|-------|---|-----|-------|-------|---------|---|
B|-------|---|-----|-------|-------|---------|---|
G|-4-4-4-|-2-|-----|-2/4-4-|-4/5-5-|-5/7-7-5-|-4-|
D|-------|---|-5-5-|-------|-------|---------|---|
A|-------|---|-----|-------|-------|---------|---|
E|-------|---|-----|-------|-------|---------|---|

   Em      D   C     G       C     D     G
e|-------|---|-----|-------|-----|-----|---|
B|-------|---|-----|-------|-----|-----|---|
G|-4-4-4-|-2-|-----|-4-4-4-|-5-4-|-----|---|
D|-------|---|-5-5-|-------|-----|-5-4-|-5-|
A|-------|---|-----|-------|-----|-----|---|
E|-------|---|-----|-------|-----|-----|---|


[verse 1]
      Em       D
Magda była jak śmierć
       C
Śmierć nosi czarny stanik
    G         C       D         G
Tatuaże jak obłoki po wybuchach bomb
  Em              D
Kochała wszystkie psy
           C
Wszystkich hycli miała za nic
    G               C
Jej włosy pachniały pizzą
   D            G         C     C D D
Do dziś zresztą czuję ten swąd
Em          D
Mariusz syn suki
    C
Ani mądry ani głupi człek
  G            C        D          G
W środku był surowy przeklinał jak szewc
Em          D         C
Czarnym samochodem rozwoził kościotrupy
       G           C
Zawsze łamało go w kościach
      D               G       C       C D D
Kiedy chmurom się zbierało na deszcz
Em    D      C
Ona i on dla siebie zwariowali
    G         C        D        G
Połykali konwenanse co mówił im ksiądz
    Em          D         C
Pół miasta z zazdrości po głowach się stukało
     G             C
Mało kto życzył im dobrze
      D        G          C       C D D
Chyba każdy czekał na ich błąd

[chorus]
G     Am         C          D
Kochankowie w ciemnościach
G         Am      B7       Em
Na cztery i pół godziny do nieba wzięci
G   Am          C          D
Oni zawsze są w gościach
G        Am       B7 
Świat na moment zapomniał
      Em          Am         B7
Dalej bez nich normalnie się kręci
G     Am         C          D
Kochankowie w ciemnościach
G          Am            B7     Em
Po drugiej stronie swych rzeczy sami razem
G     Am            C          D
Jeśli pragniesz ich spotkać
G        Am      B7 
Przycisz radio
Em     Am    B7
Zostań uchem ściany

[intro]
   Em      D   C     G       C       D        G   
e|-------|---|-----|-------|-------|---------|---|
B|-------|---|-----|-------|-------|---------|---|
G|-4-4-4-|-2-|-----|-2/4-4-|-4/5-5-|-5/7-7-5-|-4-|
D|-------|---|-5-5-|-------|-------|---------|---|
A|-------|---|-----|-------|-------|---------|---|
E|-------|---|-----|-------|-------|---------|---|

   Em      D   C     G       C     D     G
e|-------|---|-----|-------|-----|-----|---|
B|-------|---|-----|-------|-----|-----|---|
G|-4-4-4-|-2-|-----|-4-4-4-|-5-4-|-----|---|
D|-------|---|-5-5-|-------|-----|-5-4-|-5-|
A|-------|---|-----|-------|-----|-----|---|
E|-------|---|-----|-------|-----|-----|---|

[solo]
   Em    D       C           G     C       D       G  
e|-----|-------|-----------|-----|-------|-------|---|
B|-----|-------|-----------|-----|-------|-------|---|
G|-4-4-|-5-4-5-|-5/7-7-9-7-|-4-4-|-5-4-5-|-5/7-5-|-4-|
D|-----|-------|-----------|-----|-------|-------|---|
A|-----|-------|-----------|-----|-------|-------|---|
E|-----|-------|-----------|-----|-------|-------|---|

   Em    D       C       G       C       D       G
e|-----|-------|-------|-------|-------|-------|---|
B|-----|-------|-------|-------|-------|-------|---|
G|-9-9-|-9-7-5-|-4-5---|-------|-------|-------|---|
D|-----|-------|-----5-|-0---0-|-2-0---|-------|---|
A|-----|-------|-------|---2---|-----2-|-0-0---|-0-|
E|-----|-------|-------|-------|-------|-----3-|---|


[verse 2]
        Em        D     C
Chyba w końcu coś złego zaszło między nimi
          G            C
Tam gdzie wczoraj żyła rozkosz
        D         G
Dzisiaj trzaskały drzwi
        Em            D
Ona nie może na niego patrzeć
         C
On z nią więcej nie chce gadać
G            C      D        G              C       C D D
Jakiś dziwny diabeł musiał zamieszkać w ich krwi
  Em            D                C
W barze dla samobójców "Pod Szkarłatną Gilotyną"
    G             C        D        G
Spotkałem Magdę - brała tabletki na łzy
      Em               D
Nieco schudła, trochę zbrzydła
C
Serce miała z mydła
G                C    D     G        C       C D D
Wiary w niej nie było chęci życia ni sił
      Em            D      C
Przez ładnych kilka dni głośno huczało miasto
  G          C
Mówili o tym wszyscy
        D            G
Wieść rozeszła się w mig
       Em            D    C
O tych którzy się rzucali przypalonym ciastem
   G              C
Ci którym nic nie wyszło
   D           G        C       C D D
Ci którym nie udało się nic

[chorus]
G     Am         C          D
Kochankowie w ciemnościach
G         Am      B7       Em
Na cztery i pół godziny do nieba wzięci
G   Am          C          D
Oni zawsze są w gościach
G        Am       B7 
Świat na moment zapomniał
      Em          Am         B7
Dalej bez nich normalnie się kręci
G     Am         C          D
Kochankowie w ciemnościach
G          Am            B7     Em
Po drugiej stronie swych rzeczy sami razem
G     Am            C          D
Jeśli pragniesz ich spotkać
G        Am    
Przycisz radio,  zostań uchem ściany

[chorus]
G     Am         C          D
Kochankowie w ciemnościach
G         Am      B7       Em
Na cztery i pół godziny do nieba wzięci
G   Am          C          D
Oni zawsze są w gościach
G        Am       B7 
Świat na moment zapomniał
      Em          Am         B7
Dalej bez nich normalnie się kręci
G     Am         C          D
Kochankowie w ciemnościach
G          Am            B7     Em
Po drugiej stronie swych rzeczy sami razem
G     Am            C          D
Jeśli pragniesz ich spotkać
G        Am    
Przycisz radio  
Em     Am    B7
Zostań uchem ściany

enjoy!
Добавлено: 05.09.2015
Другие материалы по этой песне:
  • Аккорды и текст

Страница создана 05.09.2015
http://primanota.ru/pidzama-porno/do-nieba-wzieci-chords.htm
Привет, Гость.
Предлагаем пройти революционный курс по гитаре.
Подарок от PrimaNota.Ru, забирай!