PrimaNota.ru - самый крупный в мире бесплатный архив песенных текстов, аккордов, табулатур и нот


Pidzama Porno - Co Za Dzień - аккорды и текст, видео

Регистрация Запомнить меня
Войти через:  Facebook Google Twitter Vk Yandex Mail.ru

Pidzama Porno - Co Za Dzień - аккорды и текст, видео

Печатать
Просмотров: 83
Уроки эстрадного вокала в Санкт-Петербурге
Co Za Dzień
Pidzama Porno
Pidżama porno - Co za dzień (live version from "Koncertówka 2 drugi szczyt")
Tabbed by: damienos

Tuning: Standard

[intro] 
F#m E D E
F#m E D E
F#m E D E
F#m E D E
F#m E D E
F#m E D E
F#m E D E
F#m E D E

[intro 2]
A B F# A
A B D C#
    D   E     F#m
e|-------------------------|
B|--2-2-0h2-0h2--2-2-0-0---|
G|-------------------------|
D|-------------------------|
A|-------------------------|
E|-------------------------|
    D   E     F#m
e|-------------------------|
B|--2-2-0h2-0h2--2-2-0-0---|
G|-------------------------|
D|-------------------------|
A|-------------------------|
E|-------------------------|
    D   E     F#m
e|-------------------------|
B|--2-2-0h2-0h2--2-2-0-0---|
G|-------------------------|
D|-------------------------|
A|-------------------------|
E|-------------------------|
    D   E     F#m
e|--2-2-0h2-0h2-----|
B|------------------|
G|------------------|
D|------------------|
A|------------------|
E|------------------|

[verse 1]
D     E     F#m
Twoje swingujące ciało
D       E      F#m
Jest nieśmiałe i dziewczęce
D    E    F#m
Cała moja pewność to:
D     E    F#m
jutro jest takie dalekie
D     E    F#m
jutro jest takie dalekie
D  E    F#m
   Monsunowy deszcz
D  E   F#m
 Totalitarnie wolny
D   E    F#m
Falujący i beztroski
       D     E     F#m
Rozdziewicza nas humanitarnie
       D        E  F#m
Rozdziewicza nas humanitarnie

[bridge]
   F#     E   F#
e|-------------------------------|
B|---------------------10p9------|
G|-11--11-9-9-11---9h11----11p9--|
D|---------------11--------------|
A|-------------------------------|
E|-------------------------------|
   C#     B   C#
e|-------------------------------|
B|-------------------------------|
G|-------------------------------|
D|-11--11-9-9-11-----------------|
A|-------------------------------|
E|-------------------------------|
   F#     E   F#
e|-------------------------------|
B|---------------------10p9------|
G|-11--11-9-9-11---9h11----11p9--|
D|---------------11--------------|
A|-------------------------------|
E|-------------------------------|
   C#     B   C#
e|-------------------------------|
B|-------------------------------|
G|-------------------------------|
D|-11--11-9-9-11-----------------|
A|-------------------------------|
E|-------------------------------|

[chorus]
D E    F#m
   Ach co za dzień
        D      E       F#m
Dzień w którym grzeszą nawet anioły
D E F#m
    I nawet niebo
  D        E       F#m
wydaje się być tak niedaleko
D E    F#m
   Ach co za dzień
        D      E       F#m
Dzień w którym grzeszą nawet anioły
D E F#m
    I nawet niebo
  D        E       F#m
wydaje się być tak niedaleko

[intro 2]
A B F# A
A B D C#
    D   E     F#m
e|-------------------------|
B|--2-2-0h2-0h2--2-2-0-0---|
G|-------------------------|
D|-------------------------|
A|-------------------------|
E|-------------------------|
    D   E     F#m
e|-------------------------|
B|--2-2-0h2-0h2--2-2-0-0---|
G|-------------------------|
D|-------------------------|
A|-------------------------|
E|-------------------------|
    D   E     F#m
e|-------------------------|
B|--2-2-0h2-0h2--2-2-0-0---|
G|-------------------------|
D|-------------------------|
A|-------------------------|
E|-------------------------|
    D   E     F#m
e|---------------------|
B|--2-2-0h2-0h2--2s5h7-|
G|---------------------|
D|---------------------|
A|---------------------|
E|---------------------|

[solo]
   D   E     F#m
e|-----------------------|
B|-7-7-5h7-5h7--7--7-7-5-|
G|-----------------------|
D|-----------------------|
A|-----------------------|
E|-----------------------|
   D     E   F#m
e|-----------------------|
B|-7-5-5-----------------|
G|-------6-4h6--6--6-6-6-|
D|-----------------------|
A|-----------------------|
E|-----------------------|
   D       E     F#m
e|------------------|
B|------------------|
G|-4h6-6-4h6-6-4h6--|
D|------------------|
A|------------------|
E|------------------|
   D     E     F#m
e|----------------|
B|-5s7-7-5h7-5h7--|
G|----------------|
D|----------------|
A|----------------|
E|----------------|

[verse 2]
D   E    F#m
  Powracające fale
D   E    F#m
 Płynące do mnie i do ciebie
D    E      F#m
 Jak głuche echa lawin
D     E     F#m
Jak toczące się kamienie
D    E      F#m
 Jak głuche echa lawin
D     E     F#m
Jak toczące się kamienie
D   E           F#m
 Rozbierasz się jak co dzień
    D      E       F#m
I z każdym dniem wychodzi ci to lepiej
D    E    F#m
Cała moja pewność to:
D     E    F#m
jutro jest takie dalekie
D     E    F#m
jutro jest takie dalekie

[bridge]
   F#     E   F#
e|-------------------------------|
B|---------------------10p9------|
G|-11--11-9-9-11---9h11----11p9--|
D|---------------11--------------|
A|-------------------------------|
E|-------------------------------|
   C#     B   C#
e|-------------------------------|
B|-------------------------------|
G|-------------------------------|
D|-11--11-9-9-11-----------------|
A|-------------------------------|
E|-------------------------------|
   F#     E   F#
e|-------------------------------|
B|---------------------10p9------|
G|-11--11-9-9-11---9h11----11p9--|
D|---------------11--------------|
A|-------------------------------|
E|-------------------------------|
   C#     B   C#
e|-------------------------------|
B|-------------------------------|
G|-------------------------------|
D|-11--11-9-9-11-----------------|
A|-------------------------------|
E|-------------------------------|

[chorus]
D E    F#m
   Ach co za dzień
        D      E       F#m
Dzień w którym grzeszą nawet anioły
D E F#m
    I nawet niebo
  D        E       F#m
wydaje się być tak niedaleko
D E    F#m
   Ach co za dzień
        D      E       F#m
Dzień w którym grzeszą nawet anioły
D E F#m
    I nawet niebo
  D        E       F#m
wydaje się być tak niedaleko

[chorus]
D E    F#m
   Ach co za dzień
        D      E       F#m
Dzień w którym grzeszą nawet anioły
D E F#m
    I nawet niebo
  D        E       F#m
wydaje się być tak niedaleko
D E    F#m
   Ach co za dzień
        D      E       F#m
Dzień w którym grzeszą nawet anioły
D E F#m
    I nawet niebo
  D        E       F#m
wydaje się być tak niedaleko

[outro]
D E    F#m
   Ach co za dzień
D E    F#m
   Ach co za dzień
D E    F#m
   Ach co za dzień
D E    F#m F#m E F#m
   Ach 

enjoy!
Добавлено: 24.05.2016
Другие материалы по этой песне:
  • Аккорды и текст

Страница создана 24.05.2016
http://primanota.ru/pidzama-porno/co-za-dzien-chords.htm
Привет, Гость.
Предлагаем пройти революционный курс по гитаре.
Подарок от PrimaNota.Ru, забирай!