PrimaNota.ru - самый крупный в мире бесплатный архив песенных текстов, аккордов, табулатур и нот


Pidzama Porno - Chłopcy Idą Na Wojnę - аккорды и текст, видео

Регистрация Запомнить меня
Войти через:  Facebook Google Twitter Vk Yandex Mail.ru

Pidzama Porno - Chłopcy Idą Na Wojnę - аккорды и текст, видео

Печатать
Просмотров: 250
Уроки эстрадного вокала в Санкт-Петербурге
Chłopcy Idą Na Wojnę
Pidzama Porno
Pidżama porno - Chłopcy idą na wojnę
Tabbed by: damienos

Tuning: Standard

you can play intro during each verse or second guitar can play it

[intro] x4
   Gm             F            Dm            
e|--------------|------------|-------------|
B|--------------|--1---------|-------------|
G|--0-0---3-2-3-|----2-------|--3-2--------|
D|------0-------|------3-----|------3------|
A|--------------|------------|-------------|
E|--------------|------------|-------------|

[verse 1]
Gm
Na mszę dzwony grzmiały dostojnie
F              Dm
Chłopcy idą na wojnę
Gm
Czyszczą ordery tłuste generały
F              Dm
Chłopcy idą na wojnę
Gm
Pchają puste brzuchy panny dorodne
F              Dm
Chłopcy idą na wojnę
Gm
Maszerują wystraszone łyse pały
F              Dm
Chłopcy idą na wojnę

[chorus]
D#   F               Gm
Naj, naj na na na na naj
F                   D#
Naj, na na na na na naj naj
F
Jeszcze się zgadza
    Gm    F     D#  F
Obecności lista
    D#   F               Gm
Hej naj, naj na na na na naj
F                   D#
Naj, na na na na na naj naj
  F
I jeszcze się zgadza
    Gm    F     D#  F
Obecności lista

[verse 2]
Gm
Na mszę dzwony grzmiały dostojnie
F              Dm
Chłopcy idą na wojnę
Gm
Czyszczą ordery tłuste generały
F              Dm
Chłopcy idą na wojnę
Gm
Pchają puste brzuchy panny dorodne
F              Dm
Chłopcy idą na wojnę
Gm
Maszerują wystraszone łyse pały
F              Dm
Chłopcy idą na wojnę

[chorus 2]
F5 F5 D#5 D#5 D5
            I jeszcze się zgadza
F5 F5 D#5 D#5 D5
          Obecności lista
F5 F5 D#5 D#5 D5
      Chociaż czai się ten
F5 F5 D#5 D#5 D5
          Niedobry sen

[verse 3]
Gm
Całuje nas las i tulą okopy
F             Dm
Chłopcy piszą listy z wojny
Gm
Śmierć jest wszędzie i po trzykroć
F             Dm
Chłopcy piszą listy z wojny
Gm
Ptaki nam śpiewają brzydko
F             Dm
Chłopcy piszą listy z wojny
Gm
Śni nam się pięknych panien wilgoć
F             Dm
Chłopcy piszą listy z wojny

[chorus 2]
F5 F5 D#5 D#5 D5
          Ten list to znak
F5 F5 D#5 D#5 D5
          Że  jeszcze jesteś
F5 F5 D#5 D#5   D5
      Słowa czołgają się cicho
F5 F5 D#5 D#5  D5              D#
      Chłopiec pisze szeptem

[solo]
   Gm                         Dm
e|--------------------------|--------------------------------|
B|--------------------------|--------------------------------|
G|--------------------------|--------------------------------|
D|-5-5-5-7-8-8--5-5-5-7-8-8-|--------/10-8-7---------/10-8-7-|
A|--------------------------|-5-5-5-----------5-5-5----------|
E|--------------------------|--------------------------------|

   Gm                             Dm
e|------------------------------|--------------------------------|
B|------------------------------|--------------------------------|
G|-------7-7-5----------7-7-5---|--------------------------------|
D|-5-5-5-------8--5-5-5-------8-|--------/10-8-7---------/10-8-7-|
A|------------------------------|-5-5-5-----------5-5-5----------|
E|------------------------------|--------------------------------|

   Gm                          Dm
e|---------------------------|----------------------------------|
B|---------------------------|----------------------------------|
G|-7-7-7-8p7-7--7-7-7-8p7-7--|-10-7-9-9/10-9-7--10-7-9-9/10-9-7-|
D|---------------------------|----------------------------------|
A|---------------------------|----------------------------------|
E|---------------------------|----------------------------------|

   Gm                                Dm
e|---------------------------------|----------------------------------|
B|-8-8-8-8-8-8-8-8-8-8-8-8-8-8-8-8-|----------------------------------|
G|---------------------------------|-10-7-9-9/10-9-7--10-7-9-9/10-9-7-|
D|---------------------------------|----------------------------------|
A|---------------------------------|----------------------------------|
E|---------------------------------|----------------------------------|

[bridge]
D#5 D#5 D
D#5 D#5 D
D#5 D#5 D
D#5 D#5 D

[intro] x2
   Gm             F            Dm            
e|--------------|------------|-------------|
B|--------------|--1---------|-------------|
G|--0-0---3-2-3-|----2-------|--3-2--------|
D|------0-------|------3-----|------3------|
A|--------------|------------|-------------|
E|--------------|------------|-------------|

[verse 4]
Gm
W mieście dzisiaj dzień zwycięstwa
F                Dm
W mieście noc szaleństwa
    Gm
Defilują tłuste generały
F           Dm
Panny topią się w rumieńcach
Gm
Orkiestra marsza gra na rynku
F          Dm
Dzwony w kościołach
Gm
Tylko chłopców tutaj nie ma
 F             Dm
Urosły na nich   zioła

[chorus]
D#   F               Gm
Naj, naj na na na na naj
F                   D#
Naj, na na na na na naj naj
    F
Ich imiona z grobów
Gm        F    D#  F
Deszcz pozmywa
    D#   F               Gm
Hej naj, naj na na na na naj
F                   D#
Naj, na na na na na naj naj
    F
Ich imiona z grobów
Gm        F    D#  F
Deszcz pozmywa

[verse 5]
Gm
W mieście dzisiaj dzień zwycięstwa
F                Dm
W mieście noc szaleństwa
    Gm
Defilują tłuste generały
F           Dm
Panny topią się w rumieńcach
Gm
Orkiestra marsza gra na rynku
F          Dm
Dzwony w kościołach
Gm
Tylko chłopców tutaj nie ma
 F             Dm
Urosły na nich   zioła

[chorus 2]
F5 F5 D#5 D#5 D5
              Ich imiona 
F5 F5 D#5  D#5 D5
      z grobów deszcz pozmywał
F5 F5 D#5 D#5 D5
              Deszcz zły handlarz
F5 F5 D#5 D#5 D5
      Obłęd   się nazywa

[outro]
F5 F5 D#5

enjoy!
Добавлено: 05.09.2015
Другие материалы по этой песне:
  • Аккорды и текст

Страница создана 05.09.2015
http://primanota.ru/pidzama-porno/chopcy-ida-na-wojne-chords.htm
Привет, Гость.
Предлагаем пройти революционный курс по гитаре.
Подарок от PrimaNota.Ru, забирай!