PrimaNota.ru - самый крупный в мире бесплатный архив песенных текстов, аккордов, табулатур и нот


Picture Me Broken - Devil On My Shoulder - таба, видео

Регистрация Запомнить меня
Войти через:  Facebook Google Twitter Vk Yandex Mail.ru

Picture Me Broken - Devil On My Shoulder - таба, видео

Печатать
Просмотров: 143
This is my First tab so it may not be 100% accurate but i tried my best. There are a few
pinch harmonics in the song but i fail at those so i didnt even bother im sure you guys
can figure it out! I also put up a cover on youtube though im not the best guitarist i 
tried my best.

http://www.youtube.com/watch?v=zET-uVW0yZc

E|------------------------------------------------------------|
B|------------------------------------------------------------|
G|------------------------------------------------------------|
D|----7-78-----5-57-----7-78-10-8-7/1-------------------------|
A|------------------------------------------------------------|
D|0----------0--------0---------------------------------------|


E|------------------------------------------------------------|
B|------------------------------------------------------------|
G|------------------------------------------------------------|
D|----7-78-----5-57-----7-78-10-8-7/1-------------------------|
A|------------------------------------------------------------|
D|--8--------8--------8---------------------------------------|


E|------------------------------------------------------------|
B|------------------------------------------------------------|
G|------------------------------------------------------------|
D|------------------------------------------------------------|
A|----1212-13------1010-12-----1212-13-15-13-12/1-------------|
D|--0------------0-----------0--------------------------------|


E|------------------------------------------------------------|
B|------------------------------------------------------------|
G|------------------------------------------------------------|
D|------------------------------------------------------------|
A|----1212-13------1010-12-----1212-13-15-13-12/1-------------|
D|--8------------8-----------8--------------------------------|

First time only
E|------|-------------------------------------------------------|
B|------|-------------------------------------------------------|
G|------|-------------------------------------------------------|
D|0-----|--0-0-----8-8------10-10------8-8-----5/7-5------------| X2
A|0Pause|--0-0x14--8-8-x14--10-10-x14--8-8-x14-------7-5--------|
D|0-----|--0-0-----8-8------10-10------8-8---------------7-5-4--|
             *       *          *        *     * * * * * * * *
bend the 10x12 slightly
E|-------------------------------------------------------------|
B|-------------------------------------------------------------|
G|----9----------10----------12----------16--------------------|
D|0-0-X-x10--0-0--X-x10--0-0--X-x10--0-0--X-x5-----------------|
A|0-0-7------0-0-8-------0-0-10------0-0-14--------------------|
D|0-0--------0-0---------0-0---------0-0-----------------------|


E|------------------------------------------------------------|
B|------------------------------------------------------------|
G|-10----17-----12----14----12--------------------------------|
D|-X-x4---X--x4--X-x4--X-x2--X-x2-----------------------------| X2
A|-8-----15-----10----12----10--------------------------------|
D|------------------------------------------------------------|


E|------------------------------------------------------------|
B|------------------------------------------------------------|
G|-10----19-----21----14----12--------------------------------|
D|-X-x4---X--x4--X-x4--X-x2--X-x2-----------------------------| X2
A|-8-----17-----19----12----10--------------------------------|
D|------------------------------------------------------------|

not entirely sure about the 7x9 really hard to hear
E|-------------------------------------------------------------|
B|-------------------------------------------------------------|
G|-------------------------------------------------------------|
D|0-0-9------0-0-0-8-8------10-10------8-8-----5/7-5-----------|
A|0-0-X--x2--0-0-0-8-8-x14--10-10-x14--8-8-x14-------7-5-------|
D|0-0-7------0-0-0-8-8------10-10------8-8---------------7-5-4-|
  * *        * * *   *          *        *     * * * * * * * *

E|------------------------------------------------------------|
B|------------------------------------------------------------|
G|------------------------------------------------------------|
D|--0-0-----8-8------10-10------8-8-----5/7-5-----------------|
A|--0-0x14--8-8-x14--10-10-x14--8-8-x14-------7-5-------------|
D|--0-0-----8-8------10-10------8-8---------------7-5-4-------|
      *       *          *        *     * * * * * * * *

bend the 10x12 slightly
E|-------------------------------------------------------------|
B|-------------------------------------------------------------|
G|----9----------10----------12----------16--------------------|
D|0-0-X-x10--0-0--X-x10--0-0--X-x10--0-0--X-x5-----------------|
A|0-0-7------0-0-8-------0-0-10------0-0-14--------------------|
D|0-0--------0-0---------0-0---------0-0-----------------------|

E|------------------------------------------------------------|
B|------------------------------------------------------------|
G|-10----17-----12----14----12--------------------------------|
D|-X-x4---X--x4--X-x4--X-x2--X-x2-----------------------------| X2
A|-8-----15-----10----12----10--------------------------------|
D|------------------------------------------------------------|


E|------------------------------------------------------------|
B|------------------------------------------------------------|
G|-10----19-----21----14----12--------------------------------|
D|-X-x4---X--x4--X-x4--X-x2--X-x2-----------------------------| X2
A|-8-----17-----19----12----10--------------------------------|
D|------------------------------------------------------------|


    a few pauses in between some of the notes listen for it
E|------------------------------------------------------------|
B|------------------------------------------------------------|
G|-------------------------------------------------Pinch------|
D|0-0-78------0-0--78----0-0--78-0-57-0-0-78--0---Harmonic----|
A|0-0---------0-0--------0-0-----0----0-0-----0-x6-5*---------|
D|0-0---------0-0--------0-0-----0----0-0-----0---------------|
                                              *

E|------------------------------------------------------------|
B|------------------------------------------------------------|
G|------------------------------------------------------------|
D|0-0-78----0----57-------------------------------------------| X4
A|0-0-------0-x6----------------------------------------------|
D|0-0-------0-------------------------------------------------|
            *

E|------------------------------------------------------------|
B|------------------------------------------------------------|
G|------------------------------------------------------------|
D|0-0----0-000------------------------------------------------| X4
A|0-0----0-000------------------------------------------------|
D|0-0-78-0-000-57---------------------------------------------|

Let the last 14 ring
E|-------------------------------------------------------------|
B|---10-10h11p10-x2------10-10h11p10-x2------10-10h11p10-x2----|
G|-------------------------------------------------------------|
D|12------------------13------------------14----------------14-|
A|-------------------------------------------------------------|
D|-------------------------------------------------------------|

E|------------------------------------------------------------|
B|------------------------------------------------------------|
G|-10----17-----12----14----12--------------------------------|
D|-X-x4---X--x4--X-x4--X-x2--X-x2-----------------------------| X2
A|-8-----15-----10----12----10--------------------------------|
D|------------------------------------------------------------|


E|------------------------------------------------------------|
B|------------------------------------------------------------|
G|-10----19-----21----14----12--------------------------------|
D|-X-x4---X--x4--X-x4--X-x2--X-x2-----------------------------| X2
A|-8-----17-----19----12----10--------------------------------|
D|------------------------------------------------------------|


E|------------------------------------------------------------|
B|------------------------------------------------------------|
G|------------------------------------------------------------|
D|----7-78-----5-57-----7-78-10-8-7/1--0----------------------|
A|-------------------------------------0----------------------|
D|0----------0--------0----------------0----------------------|
Добавлено: 23.05.2012
Другие материалы по этой песне:
  • Аккорды и текст

Страница создана 23.05.2012
http://primanota.ru/picture-me-broken/devil-on-my-shoulder-chords.htm
Привет, Гость.
Предлагаем пройти революционный курс по гитаре.
Подарок от PrimaNota.Ru, забирай!