PrimaNota.ru - самый крупный в мире бесплатный архив песенных текстов, аккордов, табулатур и нот


piccadilly line - Emily Small - бас-таба, видео

Регистрация Запомнить меня
Войти через:  Facebook Google Twitter Vk Yandex Mail.ru

piccadilly line - Emily Small - бас-таба, видео

Печатать
Просмотров: 40
Tabbed by: 6METAL6BASSIST6
E-mail: petergriffinav@gmail.com

Tuning: EADG

0:10

G|------------------------------------------------------------------------------------------------|
D|------------------------------------------------------------------------------------------------|
A|------------------------------------------------------------------------------------------------|
E|3-----3-----3-----3-----3-----3-----3-----3-----3-----3-----3-----3-----3-----3-----3-----3-----|

G|------------------------------------------------------------------------------------------------|
D|5-----5-----------------------------------------------------------------------------------------|
A|------------5-----5-----3-----3-----5-----5-----3-----3-----5-----5-----7-----------5-----------|
E|------------------------------------------------------------------------------------------------|

0:26

G|------------------------------------------------------------------------------------------------|
D|------------------5-----------------------5-----------------------5-----------------------------|
A|----------------------5-3-----3-----3---------------------------------5-3-----3-----3-----5-----|
E|3-----3-----3-----------------------------------3-----3-----3-----------------------------------|

G|------------------------------------------------------------------------------------------------|
D|5---------5-4---------4-------------------------------------------------------------------------|
A|------------------------7---------7-5---------5-3---------3-5---------5-7-----------------------|
E|------------------------------------------------------------------------------------------------|

G|------------------------|
D|------------------------|
A|------------------------|
E|------------------------|

0:44

G|------------------------------------------------------------------------------------------------|
D|------------------------------------------------------------7-----7-----------------------------| x2
A|7-----7-----5-----5-----3-----3-----5-----5-----7-----7-----------------5-----5-----5-----5-----|
E|------------------------------------------------------------------------------------------------|

1:00

G|------------------------------------------------------------------------------------------------|
D|------------------------------------------------------------------------------------------------|
A|------------2-----2-----3-----3-----3-----------------------2-----2-----3-----3-----3-----------|
E|3-----3-----------------------------------------3-----3-----------------------------------------|

G|------------------------------------------------------------------------------------------------|
D|5---------5-4---------4-------------------------------------------------------------------------|
A|------------------------7---------7-5---------5-3---------3-5---------5-7-----------------------|
E|------------------------------------------------------------------------------------------------|

G|------------------------|
D|------------------------|
A|------------------------|
E|------------------------|

1:18

G|------------------------------------------------------------------------------------------------|
D|------------------------------------------------------------7-----7-----------------------------|
A|7-----7-----5-----5-----3-----3-----5-----5-----7-----7-----------------5-----5-----5-----5-----|
E|------------------------------------------------------------------------------------------------|

G|------------------------------------------------------------------------|
D|------------------------------------------------------------7-----7-----|
A|7-----7-----5-----5-----3-----3-----5-----5-----7-----7-----------------|
E|------------------------------------------------------------------------|

G|------------------------------------------------------------------------------------------------|
D|------------------------------------------------------------------------------------------------|
A|------5-----------5-----------5-----------5-----3-----3-----2-----2-----------------5-----5-----|
E|------------------------------------------------------------------------------------------------|

1:40

G|------------------------------------------------------------------------------------------------|
D|------------------------------------------------------------------------------------------------|
A|------------2-----2-----3-----3-----3-----------------------2-----2-----3-----3-----3-----------|
E|3-----3-----------------------------------------3-----3-----------------------------------------|

G|------------------------------------------------------------------------------------------------|
D|5---------5-4---------4-------------------------------------------------------------------------|
A|------------------------7---------7-5---------5-3---------3-5---------5-7---------7-5-----------|
E|------------------------------------------------------------------------------------------------|

1:58

G|------------------------------------------------------------------------------------------------|
D|------------------5-----------------------5-----------------------5-----------------------5-----|
A|----------------------5-3-----3-----3---------------------------------5-3-----3-----3-----------|
E|3-----3-----3-----------------------------------3-----3-----3-----------------------------------|

G|------------------------------------------------|
D|------------------5-----------------------5-----|
A|----------------------5-3-----3-----3-----------|
E|3-----3-----3-----------------------------------|

G|------------------------------------------------------------------------------------------------|
D|------------------------------------------------------------------------------------------------|
A|------5-----------5-----------5-----------5-----3---------3-2---------2-0---------0-3---------3-|
E|------------------------------------------------------------------------------------------------|

G|------------------------------------------------|
D|------------------------------------------------|
A|2-----------------------------------------------|
E|------------------------------------------------|
Добавлено: 27.06.2016
Другие материалы по этой песне:
  • Аккорды и текст

Страница создана 27.06.2016
http://primanota.ru/piccadilly-line/emily-small-chords.htm
Привет, Гость.
Предлагаем пройти революционный курс по гитаре.
Подарок от PrimaNota.Ru, забирай!