PrimaNota.ru - самый крупный в мире бесплатный архив песенных текстов, аккордов, табулатур и нот


Pianos Become The Teeth - Young Fire - таба, видео

Регистрация Запомнить меня
Войти через:  Facebook Google Twitter Vk Yandex Mail.ru

Pianos Become The Teeth - Young Fire - таба, видео

Печатать
Просмотров: 152
-------------------------------------------------------------------------------
                             Young Fire - Pianos Become the Teeth
-------------------------------------------------------------------------------
Tabbed by: Kamdude
Email: triathlete_max@hotmail.com

Tuning: Standard

This is the whole song now, it's pretty fun to play.
Rate/Comment? 


e|---------------------------------------------------------------------------|
B|---------------------------------------------------------------------------|
G|--------7-------4b---------0-------2/4-2p0---------------------------------| x1000
D|-----5----5---7----------0---0---0-----------------------------------------|
A|--7---------5-------5--3-------3-------------------------------------------|
E|---------------------------------------------------------------------------|

Guitar 2 (lots of bends in these notes, I'll only show some of them)

0:19

e|---------------------------------------------------------------------------|
B|---------------------------------------------------------------------------|
G|-------9---7---11br-------------------4/12-12br--16br---16--14--16--11--12-|
D|-7-7/9--------------12br---9---10---7--------------------------------------|
A|---------------------------------------------------------------------------|
E|---------------------------------------------------------------------------|

0:48
e|---------------------------------------------------------------------------|
B|---------------------------------------------------------------------------|
G|-----------------4/12-12br--16br--16--14--16--11--12-----------------------|
D|12--9--7--9--10--------------------------------------12-9-7-9-10-9-10-9----|
A|---------------------------------------------------------------------------|
E|---------------------------------------------------------------------------|

1:16
e|---------------------------------------------------------------------------|
B|-------------17--20--10h12--7---5------------------------------------------|
G|-4/12-12--16---------------------------------------------------------------|
D|----------------------------------5--7b--5--9/7--7--14/12-12-12/14---------|
A|---------------------------------------------------------------------------|
E|---------------------------------------------------------------------------|


e|--12121212--14141414--15151515---17----19----------------------------------|
B|---------------------------------------------------------------------------|
G|---------------------------------------------------------------------------|
D|---------------------------------------------------------------------------|
A|---------------------------------------------------------------------------|
E|---------------------------------------------------------------------------|


1:55

e|---------------------------------------------------------------------------|
B|---------------------------------------------------------------------------|
G|------9------------------------9\11--12--------------9/12------------------|
D|-7-9-----12-10-9--10-7--7-7/9-----------12-9-10-9-10-----------------------|
A|---------------------------------------------------------------------------|
E|---------------------------------------------------------------------------|

@ 2:44

e|---------------------------------------------------------------------------|
B|--8--7--5--7---7-7-7-7---7-7-7-5---5-5-5-5--5-5-5-8--8-8-8-8--7-7-7-7------|
G|--0--0--0--0---0-0-0-0---0-0-0-0---0-0-0-0--0-0-0-0--0-0-0-0--0-0-0-0------|
D|---------------------------------------------------------------------------|
A|---------------------------------------------------------------------------|
E|---------------------------------------------------------------------------|

e|---------------------------------------------------------------------------|
B|-5--5-5-5--5--5-5-5--8--8-8-8--7--7-7-7-7--8--8-8-8-8--10--10-10-10-10-----|
G|-0--0-0-0--0--0-0-0--0--0-0-0--0--0-0-0-0--0--0-0-0-0---0---0--0--0--0-----|
D|---------------------------------------------------------------------------|
A|---------------------------------------------------------------------------|
E|---------------------------------------------------------------------------|

e|---------------------------------------------------------------------------| 
B|-7--7-7-7-7-7--7-7-7-7-5--5-(5)- keep strumming this ----------------------| 
G|-0--0-0-0-0-0--0-0-0-0-0--0-(0)- until the next chord ---------------------| 
D|---------------------------------------------------------------------------|
A|---------------------------------------------------------------------------|
E|---------------------------------------------------------------------------|

@3:17

e|--0-------------0------------0-------------0------------------|
B|--0-------------1------------0-------------1-------1--0--0----|
G|--0-------------0------------0-------------0-------0--0--0----|
D|--2-------------2------------2-------------2-------2--2--2----|
A|--2-------------3------------2-------------3-------3--3--0----|
E|--0-------------x------------0-------------x------------------|

here are the chords: (listen at 3:40). Strumming pattern may not be exact

e|--0---0-0-0-0-0-0---0-0--0-0-0-0-0-0-0-0----------|
B|--0---0-0-0-3p0-0---0-0--0-0-0-3p0-0-0-0----------|
G|--0---0-0-0-0-0-0---0-0--0-0-0-0-0-0-0-0----------|
D|--2---2-2-2-2-2-2---2-2--2-2-2-2-2-2-2-2----------|
A|--2---2-2-2-2-2-2---2-2--2-2-2-2-2-2-2-2----------|\
E|--0---0-0-0-0-0-0---0-0--0-0-0-0-0-0-0-0----------| \   Repeat many times.
                                                       \  this fades out and
e|-----0-0-0-0---0-0-0-0--0--0--0--0--0--0----------|  /  the intro guitar
B|-----1-1-1-1---1-1-1-1--3--3--3--3--3--3p0--------| /   comes back in.
G|-----0-0-0-0---0-0-0-0--0--0--0--0--0--0----------|/
D|-----2-2-2-2---2-2-2-2--2--2--2--2--2--2----------|
A|-----3-3-3-3---3-3-3-3--3--3--3--3--3--3----------|
E|-----0-0-0-0---0-0-0-0--0--0--0--0--0--0----------|


I hope you enjoy playing it, and also I need to thank MrCheeseGravy for helping me expand the tab

************************************

| /   slide up
| \   slide down
| h   hammer-on
| p   pull-off
| ~   vibrato
| +   harmonic
| x   Mute note
| b   Bend
| pb  Pre-bend
| br  Bend release
| pbr Pre-bend release
| brb Bend release bend

***********************************
Добавлено: 28.06.2012
Другие материалы по этой песне:
  • Аккорды и текст

Страница создана 28.06.2012
http://primanota.ru/pianos-become-the-teeth/young-fire-chords.htm
Привет, Гость.
Предлагаем пройти революционный курс по гитаре.
Подарок от PrimaNota.Ru, забирай!