PrimaNota.ru - самый крупный в мире бесплатный архив песенных текстов, аккордов, табулатур и нот


Pianos Become The Teeth - Say Nothing - таба, видео

Регистрация Запомнить меня
Войти через:  Facebook Google Twitter Vk Yandex Mail.ru

Pianos Become The Teeth - Say Nothing - таба, видео

Печатать
Просмотров: 110
Авторы: Pianos Become the Teeth

-------------------------------------------------------------------------------
                             Say Nothing - Pianos Become the Teeth
-------------------------------------------------------------------------------
Tabbed by: i3ugga
E-mail: i3ugga@gmail.com

This song is a beautiful closer to "Keep You". I'm missing a few parts, please feel free 
to make your own tab
based off of this with any changes. The intro I know is messed up, but it should help 
get the ball rolling.

Tuning: Half-Step Down

Intro:
e|---------------------------------------------------------------------------|
B|---------------------------------------------------------------------------|
G|-----4---------0-------------7---7-----------------------------------------|
D|---5---4-5-2/4---4\2-2-0---5-------5---------------------------------------|
A|-5-----------------------7-----7-------------------------------------------|
E|---------------------------------------------------------------------------|
Intro Part II:
e|---------------------------------------------------------------------------|
B|---------------------------------------------------------------------------|
G|---9--9--9--9--9--9--9--9--------------------------------------------------|
D|---10-10-10-10-10-10-10-10--9--9--9--9--9--9--9--9~~~~--4--5~~----9~~--7~~~|
A|---------------------------10-10-10-10-10-10-10-10~~~~--5--7~~---10~~--9~~~|
E|---------------------------------------------------------------------------|

Distorted: This part is repeated up until the yelled "So let's say nothing some more"
e|---------------------------------------------------------------------------|
B|---------------------------------------------------------------------------|
G|---------------------------------------------------------------------------|
D|-2~~~~--4--5~~~~~~--9~~~~--9--7~~~~----------------------------------------|
A|-3~~~~--5--7~~~~~~-10~~~~-10--9~~~~----------------------------------------|
E|---------------------------------------------------------------------------|
Distorted: Played with "So let's say nothing some more"
e|---------------------------------------------------------------------------|
B|---------------------------------------------------------------------------|
G|---------------------------------------------------------------------------|
D|--5-5-5-5-4-4-2-2-2-2-2-2-2-2----------------------------------------------|
A|--7-7-7-7-5-5-3-3-3-3-3-3-3-3----------------------------------------------|
E|---------------------------------------------------------------------------|
Distorted: "I can't hold smoke"
e|---------------------------------------------------------------------------|
B|---------------------------------------------------------------------------|
G|---------------------------------------------------------------------------|
D|--7-7-7-2-2-2-2-2-5-5-5-4-4-4-4-4------------------------------------------|
A|--7-7-7-3-3-3-3-3-7-7-7-5-5-5-5-5------------------------------------------|
E|--5-5-5--------------------------------------------------------------------|

Played by one guitar throughout the ending:
e|---------------------------------------------------------------------------|
B|---------------------------------------------------------------------------|
G|---------------------------------------------------------------------------|
D|-2~~~~--4--5~~~~~~--9~~~~--9--7~~~~----------------------------------------|
A|-3~~~~--5--7~~~~~~-10~~~~-10--9~~~~----------------------------------------|
E|---------------------------------------------------------------------------|
Ending and repetitive other guitar part:
e|---------------------------------------------------------------------------|
B|---------------------------------------------------------------------------|
G|----------------------------------------7---------7------------------------|
D|-----10--10--10--12--9--9--9--10--9\7\5---9-9\7\5---5\4--------------------|
A|---10--10--10--10--10-10-10-10---------------------------------------------|
E|---------------------------------------------------------------------------|


************************************

| /   slide up
| \   slide down
| h   hammer-on
| p   pull-off
| ~   vibrato
| +   harmonic
| x   Mute note
| b   Bend
| pb  Pre-bend
| br  Bend release
| pbr Pre-bend release
| brb Bend release bend

************************************
Добавлено: 22.07.2015
Вам также может быть интересно:
Другие материалы по этой песне:

Страница создана 22.07.2015
http://primanota.ru/pianos-become-the-teeth/say-nothing-chords.htm
Привет, Гость.
Предлагаем пройти революционный курс по гитаре.
Подарок от PrimaNota.Ru, забирай!