PrimaNota.ru - самый крупный в мире бесплатный архив песенных текстов, аккордов, табулатур и нот


Pianos Become The Teeth - Ill Be Damned - таба, видео

Регистрация Запомнить меня
Войти через:  Facebook Google Twitter Vk Yandex Mail.ru

Pianos Become The Teeth - Ill Be Damned - таба, видео

Печатать
Просмотров: 58
-------------------------------------------------------------------------------
                             I'll Be Damned - Pianos Become the Teeth
-------------------------------------------------------------------------------
Tabbed by: Nick
 this is my first tab. I usually wouldnt do one but there arent many for this band. 
that being said, they use a lot of chords Im not familiar with so it might be off a bit, but I 
tried my best to be accurate. There are two guitars and I couldnt completely discern which was 
doing what or whatever so I didnt bother with the subtle lead parts, just the ones that stood out.

Tuning: I play it in drop D, But standard works too because you dont use the bottom string at all

Intro: x2
e|0-0-0-0-0---0-0-0-0-0---0-0-0-0-|0-0-0-0-0-0-0-0-0-0-0-0-0-0-0-0-|
B|3-3-3-3-3---3-3-3-3-3---3-3-3-3-|6-6-6-6-6-6-6-6-6-6-6-6-6-6-6-6-|
G|5-5-5-5-5---5-5-5-5-5---5-5-5-5-|7-7-7-7-7-7-7-7-7-7-7-7-7-7-7-7-|
D|0-0-0-0-0---0-0-0-0-0---0-0-0-0-|0-0-0-0-0-0-0-0-0-0-0-0-0-0-0-0-|
A|--------------------------------|--------------------------------|
E|----------------|---------------|----------------|---------------|

e|0-0-0-0-0-0-0-0-0-0-0-0-0-0-0-0-|0-0-0-0-0-0-0-0-0-0-0-0-0-0-0-0-|
B|5-5-5-5-5-5-5-5-5-5-5-5-5-5-5-5-|3-3-3-3-3-3-3-3-3-3-3-3-3-3-3-3-|
G|7-7-7-7-7-7-7-7-7-7-7-7-7-7-7-7-|5-5-5-5-5-5-5-5-5-5-5-5-5-5-5-5-|
D|0-0-0-0-0-0-0-0-0-0-0-0-0-0-0-0-|0-0-0-0-0-0-0-0-0-0-0-0-0-0-0-0-|
A|--------------------------------|--------------------------------|
E|----------------|---------------|----------------|---------------|
                   "Maybe!!"                 Maybe you saw....

e|0-0-0-0-0-0-0-0-0-0-0-0-0-0-0-0-|--------------------------------|
B|1010108-8-8-1111118-8-8-10101010|--------------------------------|
G|9-9-9-9-9-9-9-9-9-9-9-9-9-9-9-9-|1010109-9-9-1212129-9-9-10101010|
D|0-0-0-0-0-0-0-0-0-0-0-0-0-0-0-0-|0-0-0-0-0-0-0-0-0-0-0-0-0-0-0-0-|
A|^(3 10's)---^(3 11's)---^(4 10's)^(3 10's)---^(3 11's)---^(4 10's)
E|----------------|---------------|--------------------------------|
  "Hears you..Catching....               Missed your...

e|0-0-0-0-0-0-0-0-0-0-0-0-0-0-0-0-|--------------------------------|--------------------------------|
B|3-3-3-3-3-3-3-3-3-3-3-3-3-3-3-3-|--------------------------------|--------------------------------|
G|5-5-5-5-5-5-5-5-5-5-5-5-5-5-5-5-|3-3-3-3-3-3-3-3-3-3-3-3-3-3-3-3-|2-2-2-2-2-2-2-2-2-2-2-2-2-2-2-2-|
D|0-0-0-0-0-0-0-0-0-0-0-0-0-0-0-0-|5-5-5-5-5-5-5-5-5-5-5-5-5-5-5-5-|3-3-3-3-3-3-3-3-3-3-3-3-3-3-3-3-|
A|--------------------------------|--------------------------------|--------------------------------|
E|----------------|---------------|----------------|---------------|----------------|---------------|
      We Never....                 Under...        My beeeeeed                      Maybe I'll..

e|0-0-0-0-0-0-0-0-0-0-0-0-0-0-0-0-|0-0-0-0-0-0-0-0-0-0-0-0-0-------|
B|3-3-3-3-3-3-3-3-3-3-3-3-3-3-3-3-|3-3-3-3-3-3-3-3-3-3-3-3-3-------|
G|5-5-5-5-5-5-5-5-5-5-5-5-5-5-5-5-|5-5-5-5-5-5-5-5-5-5-5-5-5-------|
D|0-0-0-0-0-0-0-0-0-0-0-0-0-0-0-0-|0-0-0-0-0-0-0-0-0-0-0-0-0-------|
A|--------------------------------|--------------------------------|
E|----------------|---------------|----------------|---------------|
      We can....                                              But for

e|0~~~~~~~~~~~~~~~0~~~~~~~0~~~~~~~|--------------------------------|
B|10~~~~~~~~~~~~~~8~~~~~~~11~~~~~~|--------------------------------|
G|10~~~~~~~~~~~~~~10~~~~~~10~~~~~~|10~~~~~~~~~~~~~~9~~~~~~~12~~~~~~|
D|--------------------------------|0~~~~~~~~~~~~~~~0~~~~~~~0~~~~~~~|
A|--------------------------------|--------------------------------|
E|----------------|---------------|----------------|---------------|
  Nooooow         Catch...Breath                   Catch   My

e|--------------------------------|--------------------------------|
B|--------------------------------|--------------------------------|
G|2-2-2-2-2-2-2-2-2-2-2-2-2-2-2-2-|3-3-3-3-3-3-3-3-3-3-3-3-3-3-3-3-|
D|3-3-3-3-3-3-3-3-3-3-3-3-3-3-3-3-|5-5-5-5-5-5-5-5-5-5-5-5-5-5-5-5-|
A|--------------------------------|5-5-5-5-5-5-5-5-5-5-5-5-5-5-5-5-|
E|----------------|---------------|----------------|---------------|
  Breeeeeeeeeeeeeeeeeaaaaaaaaaaath                             I can

e|0~~~~~~~~~~~~~~~0~~~~~~~0~~~~~~~|--------------------------------|
B|10~~~~~~~~~~~~~~8~~~~~~~11~~~~~~|--------------------------------|
G|10~~~~~~~~~~~~~~10~~~~~~10~~~~~~|10~~~~~~~~~~~~~~9~~~~~~~12~~~~~~|
D|--------------------------------|0~~~~~~~~~~~~~~~0~~~~~~~0~~~~~~~|
A|--------------------------------|--------------------------------|
E|----------------|---------------|----------------|---------------|
  Just hear you...                 out that funk           it's time...

e|--------------------------------|--------------------------------|
B|--------------------------------|--------------------------------|
G|2-2-2-2-2-2-2-2-2-2-2-2-2-2-2-2-|3-3-3-3-3-3-3-3-3-3-3-3-3-3-3-3-|
D|3-3-3-3-3-3-3-3-3-3-3-3-3-3-3-3-|5-5-5-5-5-5-5-5-5-5-5-5-5-5-5-5-|
A|--------------------------------|5-5-5-5-5-5-5-5-5-5-5-5-5-5-5-5-|
E|----------------|---------------|----------------|---------------|
  Oooooooooooooooooooooooooooooooooonnnnnnnnnnnnnnn

e|0-0-0-0-0-0-0-0-0-0-0-0-0-0-0-0-|0-0-0-0-0-0-0-0-0-0-0-0-0-0-0-0-|
B|6-6-6-6-6-6-6-6-6-6-6-6-6-6-6-6-|11111111111111111010101010101010| <-(8 11's, 8 10's)
G|7-7-7-7-7-7-7-7-7-7-7-7-7-7-7-7-|10101010101010101010101010101010| <-(16 10's)
D|0-0-0-0-0-0-0-0-0-0-0-0-0-0-0-0-|0-0-0-0-0-0-0-0-0-0-0-0-0-0-0-0-|
A|--------------------------------|--------------------------------|
E|----------------|---------------|----------------|---------------| [Play this section 3 times]
1)Funny how....                    Still know me
2)Take your tools                  While..
3)    I know...                    Spotless     any-more

e|0-0-0-0-0-0-0-0-0-0-0-0-0-0-0-0-|0-0-0-0-0-0-0-0-0-0-0-0-0-0-0-0-|
B|6-6-6-6-6-6-6-6-6-6-6-6-6-6-6-6-|11111111111111111313131313131313| <-(8 11's, 8 13's)
G|7-7-7-7-7-7-7-7-7-7-7-7-7-7-7-7-|10101010101010101212121212121212| <-(8 10's, 8 12's)
D|0-0-0-0-0-0-0-0-0-0-0-0-0-0-0-0-|0-0-0-0-0-0-0-0-0-0-0-0-0-0-0-0-|
A|--------------------------------|--------------------------------|
E|----------------|---------------|----------------|---------------| [variation of previous riff]
                                                              but Ill...

e|--------------------------------|--------------------------------|
B|--------------------------------|--------------------------------|
G|2-2-2-2~~~~~~~~~~~~~~~~~~~~~~~~~|3-3-3-3~~~~~~~~~~~~~~~~~~~~~~~~~|
D|3-3-3-3~~~~~~~~~~~~~~~~~~~~~~~~~|5-5-5-5~~~~~~~~~~~~~~~~~~~~~~~~~|
A|--------------------------------|--------------------------------|
E|--------------------------------|----------------|---------------| Play 2 times
  naaaaaaaaaaaaaate                            I'll Let you    reso-

e|0-0-0-0-0-0-0-0-0-0-0-0-0-0-0-0-|0-0-0-0-0-0-0-0-0-0-0-0-0-0-0-0-|
B|6-6-6-6-6-6-6-6-6-6-6-6-6-6-6-6-|11111111111111111111111111111111| <-(16 11's)
G|7-7-7-7-7-7-7-7-7-7-7-7-7-7-7-7-|10101010101010101010101010101010| <-(16 10's)
D|0-0-0-0-0-0-0-0-0-0-0-0-0-0-0-0-|0-0-0-0-0-0-0-0-0-0-0-0-0-0-0-0-|
A|--------------------------------|--------------------------------|
E|----------------|---------------|----------------|---------------| Play 2 times
  Maybe your      heaven   is         that...

  gtr 1
e|0-0-0-0-0-0-0-0-0-0-0-0-0-0-0-0-|0-0-0-0-0-0-0-0-0-0-0-0-0-0-0-0-|
B|6-6-6-6-6-6-6-6-6-6-6-6-6-6-6-6-|11111111111111111111111111111111| <-(16 11's)
G|7-7-7-7-7-7-7-7-7-7-7-7-7-7-7-7-|10101010101010101010101010101010| <-(16 10's)
D|0-0-0-0-0-0-0-0-0-0-0-0-0-0-0-0-|0-0-0-0-0-0-0-0-0-0-0-0-0-0-0-0-|
A|--------------------------------|--------------------------------|
E|----------------|---------------|----------------|---------------|
 |                                |                                |
 |gtr 2                           |                                |
e|--------------------------------|--------------------------------|
B|------10--------8~~~--10~~~~~~~~|------11--------10~~~--11~~~~~~~|
G|------------10--10~~1010~~~~~~~~|------------10--10~~~1010~~~~~~~|
D|0-------------------------------|0-------------------------------|
A|--------------------------------|--------------------------------|
E|--------------------------------|--------------------------------| Play 2 times
  You and your friends             singing that...
  Lightfoot song                   If you could only read my

 |gtr 2                           |                                |
e|--------------------------------|--------------------------------|
B|------10--------8~~~--10~~~~~~~~|------11--------10~~~--11~~~~~~~|
G|------------10--10~~1010~~~~~~~~|------------10--10~~~1010~~~~~~~|
D|0-------------------------------|0-------------------------------|
A|--------------------------------|--------------------------------|
E|--------------------------------|--------------------------------| Play 2 times
 Mind                         if   you could     only     read...

e|----------------|---------------|----------------|
B|11~~~~~~~~~~~~~~|---------------|----------------|
G|10~~~~~~~~~~~~~~|---------------|----------------|
D|----(feedback)--|---------------|----------------|
A|----------------|---------------|----------------|
E|----------------|---------------|----------------|
                          Read my mind

 Gtr 1 (Im not sute If I timed this right, just play with the song and it should be ok)
e|--------------------------------|--------------------------------|----------------| 
B|--------------------------------|--------------------------------|----------------|
G|7---7-7-------------------------|7---7-7-------------------------|----------------|
D|7---7-7-7---7-7-x---------------|7---7-7-7---7-7-8---8-8-8---8-8-|8---8-8-8---7-7-|
A|--------7---7-7-x---------------|--------7---7-7-8---8-8-8---8-8-|8---8-8-8---7-7-|
E|----------------|---------------|--------------------------------|----------------|
                                                                                well the

 Gtr 1 (Not spaced out, to conserve space and time. just strum with the lyrics below.)
e|---------|---------|--------|-------------------------------|
B|---------|---------|--------|-------------------------------|
G|7~~~~~~~~|10~~~~~~-|7~~~~~~~|2/3-3-3-3-3-3-3-3\2-2-2-2-2-2-2|
D|7~~~~~~~~|10~~~~~~-|7~~~~~~~|2/3-3-3-3-3-3-3-3\2-2-2-2-2-2-2|(play this 3 times, on the last time
A|---------|---------|--------|-------------------------------| second guitar harmonizes (didnt tab))
E|---------|---------|--------|-------------------------------| 
 |Ending!  |to take  |Clapton |eyes
           |Thinking |Kill    |    then Ill see mine
 |  you had|feet     |me      |leave 
  
 Gtr 1
e|--------------------------------|--------------------------------|
B|--------------------------------|--------------------------------|
G|7-7-7-7-7-7-7-7-7-7-7-7-7-7-7-7-|10101010101010101010101010121212| < (13 10's, 3 12's)
D|7-7-7-7-7-7-7-7-7-7-7-7-7-7-7-7-|10101010101010101010101010101010| < (16 10's)
A|--------------------------------|--------------------------------|
E|--------------------------------|--------------------------------| (Play this a 2 times, gtr 2 not tabbed)
  had to find a way                had to find a way

e|----------|---------|-----------|----------------|----------------|
B|----------|---------|-----------|----------------|----------------|
G|7---------|7--------|7----------|10--------------|9---------------|
D|7---------|7--------|7----------|10--------------|10--------------|
A|----------|---------|-----------|----------------|----------------| play 3 times
E|----------|---------|-----------|----------------|----------------| last time accompanied by gtr 2
  Had to ... Leave.... Begging.... What I know now
  begging....twice...............said

e|-----------------------------|
B|----10----------11-----8-----|
G|5/7---------5/7----5/7---7\5-| follow song, too lazy to do the timing.
D|-----------------------------|
A|-----------------------------|
E|-----------------------------|
 
outro
  gtr 2
e|----------------------------------------------------------------|
B|--10----8-----11-----8-----10----10~~~~~~~~~~~~~~11~~~~~~8~~~~~~|
G|----10----10----10-----10----10--10~~~~~~~~~~~~~~11~~~~~~8~~~~~~|
D|0-----0-----0------0-----0-----0--------------------------------|
A|----------------------------------------------------------------|
E|----------------------------------------------------------------|



************************************

| /   slide up
| \   slide down
| h   hammer-on
| p   pull-off
| ~   vibrato
| +   harmonic
| x   Mute note
| b   Bend
| pb  Pre-bend
| br  Bend release
| pbr Pre-bend release
| brb Bend release bend

************************************
Добавлено: 01.12.2015
Другие материалы по этой песне:

Страница создана 15.08.2013
http://primanota.ru/pianos-become-the-teeth/ill-be-damned-chords.htm
Привет, Гость.
Предлагаем пройти революционный курс по гитаре.
Подарок от PrimaNota.Ru, забирай!