PrimaNota.ru - самый крупный в мире бесплатный архив песенных текстов, аккордов, табулатур и нот


Pianos Become The Teeth - Houses We Die In - таба, видео

Регистрация Запомнить меня
Войти через:  Facebook Google Twitter Vk Yandex Mail.ru

Pianos Become The Teeth - Houses We Die In - таба, видео

Печатать
Просмотров: 159
-----------------------------------------------------------------------------
                Houses We Die In - Pianos Become the Teeth
-----------------------------------------------------------------------------

Tabbed by: x3ricxblink182

Email: x3ricxblink182@aim.com

Tuning: Drop D


 (*0:02):


"And I miss home..."


Guitar 1:

E|------------------------------|  \
B|------------------------------|   \
G|--141414141414-10101010-------|    \
D|---x-x-x-x-x-x--xxxxxx--------|     \   
A|--121212121212-\999999--------|      
D|------------------------------| x2    x4

E|------------------------------|      /
B|------------------------------|     /
G|--141414141414-10b10b10b------|    /
D|---x-x-x-x-x-x--x--x--x-------|   /
A|--121212121212-\9b-9b-9b------|
D|------------------------------| x2

Guitar 2:

E|-------------------------------------------------------|
B|-------------------------------------------------------|
G|-1111111111111-999999999999-777777777777777777777777---|
D|--999999999999-777777777777-555555555555555555555555---|
A|--999999999999-777777777777-555555555555555555555555---|
D|--999999999999-777777777777-555555555555555555555555---| x4



(*0:43)


"But she can't do it alone..."


Guitar 1:

E|-------------------|  
B|-------------------|   
G|-14~~~~--1414x-----|    
D|--x~~~~---x-xx-----|       
A|-12~~~~--1212x-----|      
D|-------------------| x4    

Guitar 2:

E|------------------|  
B|------------------|   
G|-6~~~~----66x-----|    
D|-0~~~~----00x-----|       
A|-0~~~~----00x-----|      
D|-0~~~~----00x-----| x4

"My father's red's..." 




(*1:04) –


E|-----------------------------5-7-------5-7-9-7-5---|  
B|--15~~~--14~~~--10~------5h7---—----5h7------------|   
G|--------------------------------7------------------|    
D|---------------------------------------------------|       
A|---------------------------------------------------|      
D|---------------------------------------------------| 




(*1:14) –


E|-----5-7p5---|  
B|--5h7-7------|   
G|-------------|      \  
D|-------------|       \    
A|-------------|        \    
D|-------------| x2       x4
                        /
E|-----5-7-/9-7-5--|   /
B|--5h7------------|  /  
G|-----------------|    
D|-----------------|       
A|-----------------|      
D|-----------------|


(*1:35) –


E|-----5-7-/9-7-5--| 
B|--5h7------------|
G|-----------------|    
D|-----------------|       
A|-----------------|      
D|-----------------| x4

(*1:45) –


E|------------12~--12~---12h14~--10~--9-10~10101010---| 
B|--15~--14~------------------------------------------|
G|----------------------------------------------------|    
D|----------------------------------------------------|       
A|----------------------------------------------------|      
D|----------------------------------------------------| 


(*1:55) –


E|------------12~--14~--1717171717171717-1515151515-14141414---| 
B|--15~--14~---------------------------------------------------|
G|-------------------------------------------------------------|    
D|-------------------------------------------------------------|       
A|-------------------------------------------------------------|      
D|-------------------------------------------------------------| 


(*2:06) –


E|------------171717171717171717-1515151515-141414141414---| 
B|--15~--14~-----------------------------------------------|
G|---------------------------------------------------------|    
D|---------------------------------------------------------|       
A|---------------------------------------------------------|      
D|---------------------------------------------------------| 



(*2:16) –


“All we have…”

E|-----------------14(x6)-17(x12)-15(x6)-14(x6)------|
B|--15(x12)-17(x6)-----------------------------------|
G|---------------------------------------------------|    
D|---------------------------------------------------|       
A|---------------------------------------------------|      
D|---------------------------------------------------| x2


(*2:36) –


E|------------12~--12-10-9-------------17~--14~----| 
B|--15~--14~-----------------15~--14~--------------|
G|-------------------------------------------------|    
D|-------------------------------------------------|       
A|-------------------------------------------------|      
D|-------------------------------------------------|


(*2:48) –


“The truth is…”

E|------------------17~---| 
B|--------15~--14~--------|
G|------------------------|    
D|------------------------|       
A|--0~--------------------|      
D|--0~--------------------|


(*2:54) –


“Softening your skin and hardening mine…”


E|--14~--12~--10~--9~-10-10~~~----| 
B|--------------------------------|
G|--------------------------------|    
D|--------------------------------|       
A|--------------------------------|      
D|--------------------------------|






****(Piano and dialogue) ****






“I miss you…”




“I know…”


(*4:55) –


Back to intro:

Guitar 1:

E|------------------------------|  \
B|------------------------------|   \
G|--141414141414-10101010-------|    \
D|---x-x-x-x-x-x--xxxxxx--------|     \   
A|--121212121212-\999999--------|      
D|------------------------------|x2     x4

E|------------------------------|      /
B|------------------------------|     /
G|--141414141414-10b10b10b------|    /
D|---x-x-x-x-x-x--x--x--x-------|   /
A|--121212121212-\9b-9b-9b------|
D|------------------------------|x2


Guitar 2:

E|-------------------------------------------------------|
B|-------------------------------------------------------|
G|-1111111111111-999999999999-777777777777777777777777---|
D|--999999999999-777777777777-555555555555555555555555---|
A|--999999999999-777777777777-555555555555555555555555---|
D|--999999999999-777777777777-555555555555555555555555---| x4




End on:

E|-------------|  
B|-------------|   
G|---11~~~-----|    
D|----9~~~-----|        
A|----9~~~-----|      
D|----9~~~-----|  


***************************************************************
Добавлено: 28.06.2012
Другие материалы по этой песне:

Страница создана 28.06.2012
http://primanota.ru/pianos-become-the-teeth/houses-we-die-in-chords.htm
Привет, Гость.
Предлагаем пройти революционный курс по гитаре.
Подарок от PrimaNota.Ru, забирай!