PrimaNota.ru - самый крупный в мире бесплатный архив песенных текстов, аккордов, табулатур и нот


Phish - You Enjoy Myself - аккорды и текст, таба, бас-таба, видео

Регистрация Запомнить меня
Войти через:  Facebook Google Twitter Vk Yandex Mail.ru

Phish - You Enjoy Myself - аккорды и текст, таба, бас-таба, видео

Печатать
Просмотров: 163
You Enjoy Myself
Phish
		   t. See http://www..net/faq/ for more information.                     #
#-----------------------------------------------------------------------------#


This is in response to the Eric Berman tab of You Enjoy Myself. I do not =
know why he did not tab the arpeggios since they are the only hard part o=
f the song. The rest of the song is easy. The following is a result of 45=
 minutes worth of concentration. It is from the "Junta" album and is almo=
st note for note. If you only have the "A Live One" album it will still h=
elp. The fingering I use works for me because of various bad habits I hav=
e acquired. When my band and I play it i do not think anybody can tell th=
e difference. If you find a better way of playing it or if you take the t=
ime to tab out any other versions please email me at

Trthomp917@aol.com


This was done on PowerTab Beta.98  and then converted to RTF



Legend
------

 h  =3D hammer-on
 p  =3D pull-off
 b  =3D bend
 r  =3D bend release
 /  =3D slide up/down
 5> =3D natural harmonic
[5] =3D artifical harmonic
 ~  =3D vibrato
 tr =3D trill





E|---------------10-8--------------------------8-----------------------
B|------------11------8---------------------10----------8--------------
G|---------12-----------9----------------10---------------9------------
D|----8-12----------------10--------7-10--------------------10-------8-
A|-10------------------------10-7-8--------------7-10-7-----------10---
E|-------------------------------------------------------------11------





E|-----------------------------------------------------------------------
B|---8-11-8-11-8-------------------------------8------8-8-11-8-----------
G|-8-------------8----------------------9----9---9-------------8---------
D|-----------------8---10------10----10---10---------------------8-------
A|-------------------8----7-10----10-------------------------------10----
E|--------------------------------------------------------------------11-





E|---------------------------------------------15-18-15----------------
B|---------------------13-------------------17----------16-------------
G|------------------------14-------------17----------------15----------
D|----8----8------7-10-------15----14-17----------------------17-------
A|-10---10---10-8---------------15-------------------------------18-17-
E|---------------------------------------------------------------------





E|----------15-20-15-------------------------------------10-8-----------
B|-------15----------17-------------------------------11------8---------
G|----15----------------17-------------------------12-----------9-------
D|-15----------------------17-14--------------8-12----------------10----
A|-------------------------------15--------10------------------------10-
E|----------------------------------------------------------------------





E|----------------8----------------------------------------------------
B|-------------10---11-----------------------8-11-10-8-----10----------
G|----------10---------10-7----------------8-----------8------8----14--
D|-----7-10-----------------8------------8---------------8------12-----
A|-7-8------------------------8-------10-------------------------------
E|------------------------------10-11----------------------------------





E|-----------------14------------------------------------18-17-----------
B|--------------15----15------------------------------20-----------------
G|-----------------------14-11---------------------20-----------20-------
D|-----------------------------12------------17-20-----------------17-19-
A|--------------------------------12-9----18-----------------------------
E|-------------------------------------10--------------------------------





E|----------------------17---------------------------------------------
B|-------------------19-------------20------------------20-------------
G|----------------19-------19----------19------------20----------------
D|----------16-19-------------20-17-------20--/17-20-------------------
A|-18-17-17------------------------------------------------------------
E|---------------------------------------------------------------------





E|-18-17-------------------------------------------------15-------------
B|----------------------------------------------19----19----15-------15-
G|-------20-17-------------------------19----19----19----------16-------
D|-------------19-------19-16----16-19----19----------------------17----
A|----------------18-15-------17----------------------------------------
E|----------------------------------------------------------------------





E|---------------------17---------------19------------15-
B|------------------17----17---------19----19------17----
G|-16------------17---------------19-----------/17-------
D|----17-----/19--------------/21------------------------
A|-------17----------------------------------------------
E|-------------------------------------------------------





E|-20-15--18-15----18-15----18-15----18-15------------15-20-15-----------= -
B|------17------16-------16-------15-------15------17----------17------19= -
G|---------------------------------------------/17-----------------/19---= -
D|-----------------------------------------------------------------------
A|-----------------------------------------------------------------------
E|-----------------------------------------------------------------------





E|-17--22-17----
B|-----------19-
G|--------------
D|--------------
A|--------------
E|--------------     
Добавлено: 12.11.2013
Другие материалы по этой песне:

Страница создана 08.04.2012
http://primanota.ru/phish/you-enjoy-myself-chords.htm
Привет, Гость.
Предлагаем пройти революционный курс по гитаре.
Подарок от PrimaNota.Ru, забирай!