PrimaNota.ru - самый крупный в мире бесплатный архив песенных текстов, аккордов, табулатур и нот


Phish - Weigh - текст песни, таба, видео

Регистрация Запомнить меня
Войти через:  Facebook Google Twitter Vk Yandex Mail.ru

Phish - Weigh - текст песни, таба, видео

Печатать
Просмотров: 90


Weigh
From: David Douglas McCallum  

Intro
        E7    A7  E7    A7  F#9  F#6/9

   P-O    P-O   S/    S/
E|-2-0-|--3-0-------0------|9---11--9---9-9-|
B|0----|-2---2-----------4-|9---11--9---9-9-|
G|-----|1-----0----1-------|9-9-11--9---9-9-|
D|-----|-------------------|8-------8---8-8-|
A|-----|--------1-2---3-4--|9----9--9---9-9-|
E|-----|-------------------|----------------|

E|9---9-----------------------|
B|9----11-12----------10-11---|
G|9---------11-10-9-8-------9-|
D|8---------------------------|
A|9---------------------------|
E|----------------------------|

  F#7     G#7 F#7        B7                    E7

        S/               S/ P-O H-O P-O P-O    S/
E|2-------4---2-2-2-|2------------------------|------0-0-|
B|5-------7---5-5-5-|5------4-0---------------|------3-3-|
G|3-------5---3-3-3-|3----------0-1-----------|------1-1-|
D|2-------4---2-2-2-|2--------------2-0-------|----0-2-2-|
A|4-------6---4-4-4-|4-0-2-6------------2-0---|----------|
E|2-------4---2-2-2-|2----------------------3-|0-4-------|


1.----------------|2.---------------
   F6      F#+ B7    F6      E7        A       G         G G# A
|  /   /   /   / :|  /   /   /   /  |  /   /   /   /  |  /    /   /   /  |
               ^*

   A     G        G G# A           A7      G7        G7 G#7 A7
|  /  /  /  /  |  /    /  /  /  |  /   /   /   /  |  /      /   /   /  |

   A7      G7        G7 G#7 A7      B7
|  /   /   /   /  |  /      /   /   /  | repeat thru 1st end, then verse
                                    ^*

* - play the 3-note pickup over the B7 chord


Verse
        E7               A7
    I'd like to cut your head off
E7           Gdim7    F#m
    So I can weigh it, what do you say
           F#7-G#7 F#7 B         A-B F#m E6           F6 F#+ B7
Five pounds,            six pounds,        seven pounds
    E7            A7
I'd like to go to your house
    E7              A7     G#7 F#7 B         A-B F#m E6            F6 E7
Five pounds,            six pounds,        seven pounds

[play second ending of intro - A amp; G part]

    E7             A7
I'd like to gather all your friends
    E7                 A7    E7
And squish them into a small swimming pool
         Gdim7      F#m
So I can weigh them, what do you say
           F#7-G#7 F#7 B         A-B F#m E6            F6 E7
Five pounds,            six pounds,        seven pounds

Chorus

F#m7 B6         E6
Why  weigh on a sunny day
F#m7       B6    G#m      C#7   B6
So much to do so why, why weigh
     A6      B7     E6    Gdim
On a sunny day, why weigh-hey
F#m7  B6         E6
Why   weigh, why weigh

Solos [repeat entire intro]

    E7              A7
I'd like to hear my options
         Gdim7      F#m
So I can weigh them, what do you say
           F#7-G#7 F#7 B         A-B F#m E6            F6 E7
Five pounds,            six pounds,        seven pounds

F#m7 B6         E6
Why  weigh on a sunny day
F#m7       B6    G#m        C#7   B6
So much to do so why oh why weigh
     A6      B6            E6    Gdim
On a sunny day, why oh why weigh-hey
F#m7          B6            E6
Why oh why oh why oh why oh why oh
              Gdim          F#m7
Why oh why oh why oh why oh why oh
B6        E6
Why-y why weigh



Добавлено: 28.12.2013
Другие материалы по этой песне:
  • Аккорды и текст

Страница создана 04.05.2012
http://primanota.ru/phish/weigh-chords.htm
Привет, Гость.
Предлагаем пройти революционный курс по гитаре.
Подарок от PrimaNota.Ru, забирай!