PrimaNota.ru - самый крупный в мире бесплатный архив песенных текстов, аккордов, табулатур и нот


Phish - The Horse - аккорды и текст, таба, видео

Регистрация Запомнить меня
Войти через:  Facebook Google Twitter Vk Yandex Mail.ru

Phish - The Horse - аккорды и текст, таба, видео

Печатать
Просмотров: 159
Уроки эстрадного вокала в Санкт-Петербурге
The Horse
Phish
		   "The Horse" by Phish (trey & tom marshall)

I don't know how to write tab on my screen, and i know this won't print
correctly, but if someone who can would like to take the music and make it
printable, pheel phree.

here goes...

e------------------------------------------0------------------------------
------0----------------------
B---------------------------------------0---------------------------------
---0-----------------------
G------------------------------------5------------------------------------
5--------------------------
D---------------------------------7------------------------------------7--
----------------------------
A----(0---0---0---0)---0---0----------------------0---0---0---0-----------
--------0---0---0---
E-------------------------------------------------------------------------
------------------------------

                                                               |> (strum a
few times...)
e-----------------------------------------------------0-------------------
----------------
B------------1----0------0------0--------------1----------3---------------
------------
G--------2-----------1-----------------------2-------------2--------------
--------------
D----2-----------------------2-----------3------------------3-------------
-------------
A-------------------------------------------------------------0-----------
---------------
E-------------------------------------------------------------------------
-----------------

[========faster=====================]
e-------------------------------------------------------------------------
---------------------------------------------
B----1--------------------3------------------5--------6--------5--------5-
-------5--------6--------5------------
G----2--------------------2------------------5--------5--------5--------7-
-------5--------7--------5-----------
D----3--------------------3------------------5--------5--------5--------5-
-------5--------5--------5-----------
A-------------------------------------------------------------------------
--------------------------------------------
E-------------------------------------------------------------------------
-------------------------------------------

e----------------------------------------------------0--------------------
--------
B---------3---------1--------------------------1----------------------3---
----
G---------4---------2---------------------2---------------------------3---
-----
D---------5---------2----------------2--------------------------------3---
----
A-----------------------------------------------------------------------1-
------
E-------------------------------------------------------------------------
--------

______________________________________________
|  1.                                             rit.
e----------------------------------------------------------------------
   |
B----------------3-----------------3------------------3-------------   o
|
G------------3------------------3------------------3----------------
|
D---------3------------------3------------------3-------------------   o
|
A------1------------------1------------------1----------------------
|
E---------------------------------------------------------------------
   |

___________________
| 2.
             G (strum a few times...)
e-------------------------------------------------------------------------
-3-------------3----------------------
B---------------3-----------3------------3------------------------------0-
------------0--------------------
G------------3-----------3------------3----------------0---------------0--
-----------0---------------
D---------3-----------3------------3-------------------0---------------0--
-----------0-----------------
A------1-----------1------------0----------------------2------------------
------------2--------------
E--------------------------------------------------------3----------------
--------------3------------------


move up to an Am barre chord

During singing play these chords once through (listen to song for changes)

Am(barre) \  C(with G on top) \   G  \  D  \  C(E on top)  \  F*  \ (play
an E note on D string)  \  D  \  C(E on top)  \  Am(at 1st+2nd frets)  \ B
  \    Em   \     C(E on top)    \     G

*omit high f note by muting 1st string.

lyrics (more or less):

It's time I slink the baskets off this silver burden horse
Sink my toes into the ground and set a different course
'Cause if I were here and you were there, I'd meet you in between
And not until my dying day confess what I had seen.


__________________________________________________________________________
_

please email if you'd like to tell me how to tab, because i'd like to do
more of it.
eunaesia@aol.com (i think?)
bryan fox     
Добавлено: 07.09.2013
Другие материалы по этой песне:
  • Аккорды и текст

Страница создана 20.03.2012
http://primanota.ru/phish/the-horse-chords.htm
Привет, Гость.
Предлагаем пройти революционный курс по гитаре.
Подарок от PrimaNota.Ru, забирай!