PrimaNota.ru - самый крупный в мире бесплатный архив песенных текстов, аккордов, табулатур и нот


Phish - Sleep - аккорды и текст, таба, видео

Регистрация Запомнить меня
Войти через:  Facebook Google Twitter Vk Yandex Mail.ru

Phish - Sleep - аккорды и текст, таба, видео

Печатать
Просмотров: 163
Sleep
Phish
Sleep
by PHISH off Farmhouse
Tabbed by Ryan Radcliff, rradclif@uci.edu

Here are the chord positions for this song.
Fingerpick:

E|------------------|
B|------------------|
G|------5----4------|
D|------5----5------|
A|------------------|
E|------------------|

E|----10---8---3--------------------------|
B|-----8---6---1------3----1----1--1--0---|
G|-----0---0---0--------------------------|
D|-----9---7---2------3----2----2--2--0---|
A|----10---8---3--------------------------|
E|------------------3----3-----3--3-------|

Next part: F C G open fingerpicked chords.
     
Добавлено: 20.09.2013
Другие материалы по этой песне:
  • Аккорды и текст

Страница создана 15.03.2012
http://primanota.ru/phish/sleep-chords.htm
Привет, Гость.
Предлагаем пройти революционный курс по гитаре.
Подарок от PrimaNota.Ru, забирай!