PrimaNota.ru - самый крупный в мире бесплатный архив песенных текстов, аккордов, табулатур и нот


Phish - Show Of Life - таба, видео

Регистрация Запомнить меня
Войти через:  Facebook Google Twitter Vk Yandex Mail.ru

Phish - Show Of Life - таба, видео

Печатать
Просмотров: 95
Уроки эстрадного вокала в Санкт-Петербурге
-------------------------------------------------------------------------------
                             Show of Life - Phish
-------------------------------------------------------------------------------
Tabbed by:Bruce Smith
E-mail:

Tuning:Standard

INTRO: Repeat 3x
                     A                              D
e|---------------------------------------------------------------------------|
B|-------------------5------------------------------7------------------------|
G|-------------------6------------------------------7------------------------|
D|-------------------7------------------------------7------------------------|
A|-------------0------------------------------0------------------------------|
E|-0-ho-2-/-5---------------------0-ho-2-/-5---------------------------------|
                     D/F#                           A
e|---------------------------------------------------------------------------|
B|-------------------7------------------------------5------------------------|
G|-------------------7------------------------------6------------------------|
D|-------------------7------------------------------7------------------------|
A|-------------0-----9------------------------0------------------------------|
E|-0-ho-2-/-5---------------------0-ho-2-/-5---------------------------------|


Verse 1:

Chord shapes:

     A        D        D/F#
e|-------------------------|
B|---5--------7--------7---|
G|---6--------7--------7---|
D|---7--------7--------7---|
A|---------------------9---|
E|-------------------------|

A                  D
It's no easy road, this struggle and strife
D/F#                A
We find ourselves, in the show of life
A                       D
What's on your schedule? What's on the plan?
D/F#                 A
Do you ever ignore, what you don't understand?

Verse 2:

Chord Shapes:

     Bm       A
e|---2------------|
B|---3--------2---|
G|---4--------2---|
D|---4--------2---|
A|---2--------0---|
E|----------------|

B                        A
Don't ask me, cuz I don't know
Bm                                   A
I just fasten my seatbelt wherever I go

     F#m      Bm       A
e|---9--------7-------------|
B|---10-------7--------5----|
G|---11-------7--------6----|
D|---11-------9--------7----|
A|---9--------9-------------|
E|------------7-------------|

F#m                         Bm
It's been perfectly planned, it's completely insane
Bm                                A
It's a revolving cast but it's the same old game

1x
                     D
e|--------------------------------------------|
B|-------------------7------------------------|
G|-------------------7------------------------|
D|-------------------7------------------------|
A|-------------0------------------------------|
E|-0-ho-2-/-5---------------------------------|


                     D/F#                           A
e|---------------------------------------------------------------------------|
B|-------------------7------------------------------5------------------------|
G|-------------------7------------------------------6------------------------|
D|-------------------7------------------------------7------------------------|
A|-------------0-----9------------------------0------------------------------|
E|-0-ho-2-/-5---------------------0-ho-2-/-5---------------------------------|

Or you can just strum the chords. (Trey does both)

     A        D        D/F#
e|-------------------------|
B|---5--------7--------7---|
G|---6--------7--------7---|
D|---7--------7--------7---|
A|---------------------9---|
E|-------------------------|


Verse 3:

Chord Shapes:

     A        D        D/F#
e|-------------------------|
B|---5--------7--------7---|
G|---6--------7--------7---|
D|---7--------7--------7---|
A|---------------------9---|
E|-------------------------|


A                  D
Waves of people, come and they go
D/F#              A
Shine for awhile, in this marvelous show
A                   D
It's a limited time, that we exist
D/F#                    A
We slowly make our way, into the mist

Verse 4

Chord Shapes:

     D        A
e|----------------|
B|---7--------5---|
G|---7--------6---|
D|---7--------7---|
A|---5------------|
E|----------------|


D                A
My thoughts are racing
       D                             A
I see faces of the friends that I recall


             Trey walks down to the F#m at the 2nd fret(Just the note)
D            C#   B  F#m
I'd like to take this time

     B        E
e|---7------------|
B|---7--------9---|
G|---8--------9---|
D|---9--------9---|
A|---9--------7---|
E|---7------------|

B            E
To thank you all

Last Verse:

Chord Shapes:

     A        D        D/F#
e|-------------------------|
B|---5--------7--------7---|
G|---6--------7--------7---|
D|---7--------7--------7---|
A|---------------------9---|
E|-------------------------|


A                                 D
Just as the blind imagine what it is to have sight
D/F#                    A
We slowly take a stroll into the night
A                 D
It's no easy road, this struggle and strife


     D        D/C#     Bm
e|-------------------------|
B|---7--------7--------3---|
G|---7--------7--------4---|
D|---7--------7--------4---|
A|---5--------4--------2---|
E|-------------------------|

    D   C#m   Bm   (no chord)         A  D
We find ourselves, in the show of life


               A      D
In the show of life x 4
(find ourselves right here)


This is my first tab so please let me know what you think and if i messed up anywhere.

************************************

| /   slide up
| \   slide down
| ho  hammer-on
| p   pull-off
| ~   vibrato
| +   harmonic
| x   Mute note
| b   Bend
| pb  Pre-bend
| br  Bend release
| pbr Pre-bend release
| brb Bend release bend

************************************
Добавлено: 08.12.2015
Другие материалы по этой песне:
  • Аккорды и текст

Страница создана 08.12.2015
http://primanota.ru/phish/show-of-life-chords.htm
Привет, Гость.
Предлагаем пройти революционный курс по гитаре.
Подарок от PrimaNota.Ru, забирай!