PrimaNota.ru - самый крупный в мире бесплатный архив песенных текстов, аккордов, табулатур и нот


Phish - Mango - аккорды и текст, видео

Регистрация Запомнить меня
Войти через:  Facebook Google Twitter Vk Yandex Mail.ru

Phish - Mango - аккорды и текст, видео

Печатать
Просмотров: 43
Mango
Phish
Intro/main riff chords       :D G C G: D G C B E 
e|------------------------------------------| 
B|-/7---------------------------------------| 
G|----9p7---7-------9-9-7----9-7----------9-| 
D|-------7h9-9p7---------7-10-------7-9-10--| 
A|--------------------------------10--------| 
E|------------------------------------------| 
 
Verse       
E|--------------------------------------------------| 
B|-9--9--9--10-10----9-11--7--4--9----10--10--10--7-| 
G|-9--8--7--11-11----9-11--8--4-10----11--10---9--8-| 
D|-9--9--9--11-10----9-11--9--6-11----11--11--11--9-| 
A|----------------------------------------10--------| 
E|--------------------------------------------------| 
   or 
e|-0--0--0---2-2-------------2--2-------| 
B|-0--0--0---2-2--5-7--7--4--2--2--2--4-| 
G|-1--1--1---2-2--4-6--4--4--2--2--2--4-| 
D|-2--1--0---4-3--2-4--4--6--4--3--2--4-| 
A|-2--2--2---4-4-------------4--4--0----| 
E|-0--0--0---2-2-------------2--2-----7-| 
 
Spasm waiter dropping to his knees, sees 
Slander on wrap paper ties 
Lifting up his head he feels the sunlight in his eyes 
 
Grasp a kettle top and shoot the breeze, please 
Ramble while slop scraper sighs 
Tossing in his bed at night he'll dream until he dies 
 
Bridge 
E|---0---0---0---0---0---4-------0---0---0---0-------2--- 
B|---0---1---2---2---2---4-------0---1---2---2-------4--- 
G|---1---1---1---2---3---5-------1---1---1---2-------4--- 
D|-----------------------6------------------------------- 
A|------------------------------------------------------10 
E|------------------------------------------------------- 
Operations at the sink 
The dribble liquid visible beneath his troubled eyes 
Feels it tilt and start to slide 
 
Verse 3 
Mask a pretty hopper's foot with squeeze cheese 
Dangle some grape apple pies 
Tranquil and serene until he runs out of supplies 
 
Chorus
   D G C G 
E|------------||----7--8--7-| 
B|-3--3--5--3-||-7--8--8--8-| 
G|-2--4--5--4-||-7--7--9--7-| 
D|-4--5--5--5-||-7-----10---| 
A|------------||------------| 
E|------------||------------|  mesh with intro on C  G 
 
Your hands and feet are mangos You're gonna be a genius anyway 
Your hands and feet are mangos You're gonna be a genius anyway 
  
Guitar Solo(tabbed by vietmon):
   3:00  
e-9/12-9-------------------------------------- 
B--------10------10-10/11~-(11)-9------9------ 
G-----------9---------------------9-------9--- 
D-------------11--------------------10------10 
A--------------------------------------------- 
E--------------------------------------------- 
 
e-12/14-12----12-------------------------------------- 
B----------14----14-15-12-----------11-13-12-11------- 
G-------------------------14--------------------12-13~ 
D----------------------------14-12-------------------- 
A----------------------------------------------------- 
E----------------------------------------------------- 
                                                       + 
e-------------------16----17--14------------------------- 
B----------14-15-16-------x------17-14-----------14----12 
G-13-16-17----------------x------------14-----15--------- 
D------------------------------------------16------------ 
A-------------------------------------------------------- 
E-------------------------------------------------------- 
 
e-------------12/14-12---------------------------------------------------- 
B--------9-------------14h15p14------------14-17-14/16-14----------------- 
G-------9-----------------------14-------14--------------16-15-14-13------ 
D-----10----------------------------14/16----------------------------13/14 
А-10/11------------------------------------------------------------------- 
E-------------------------------------------------------------------------
Добавлено: 05.06.2016
Другие материалы по этой песне:
  • Аккорды и текст

Страница создана 05.06.2016
http://primanota.ru/phish/mango-chords.htm
Привет, Гость.
Предлагаем пройти революционный курс по гитаре.
Подарок от PrimaNota.Ru, забирай!