PrimaNota.ru - самый крупный в мире бесплатный архив песенных текстов, аккордов, табулатур и нот


Phish - Letter To Jimmy Page - таба, видео

Регистрация Запомнить меня
Войти через:  Facebook Google Twitter Vk Yandex Mail.ru

Phish - Letter To Jimmy Page - таба, видео

Печатать
Просмотров: 73
Phish-Letter to Jimmy Page
Appears on "The White Tape"
Transcribed by Jonathan Healey  ( makisupa@asu.uswest.net )

 A  B  D
E-----------------------------------------------------------------|
B-2--4--7--------------------------5-------------------8b--8b--5--|
G-2--4--7------------4--7-------------7----------7----------------|  X2
D-2--4--7-----5h6-6-----------5-6-----------5h6-----7-------------|
A----------7---------------7-------------7------------------------|
E-----------------------------------------------------------------|

Then mix around these chords with tab below them

 A  D  E                  A  G  E
E-5--5--7----|                E-5--3--0-------|
B-5--7--9----|                B-5--3--0-------|
G-6--7--9----|   X4     or    G-6--4--2-------|      X4
D-7--7--9----|                D-7--5--3-------|
A-7--5--7----|                A-7--5--3-------|
E-5--5--7----|                E-5--3--0-------|

E-----------------------------------------|
B-10--8--5--10--8--5---10--8--5--10--8--5-|
G-----------------------------------------|
D-----------------------------------------|
A-----------------------------------------|
E-----------------------------------------|

Then play these chords and mix them with the tab below them.

 B  E  B  B  C#m  D
E-7--7--7--7--9---10-|
B-7--9--7--7--9---10-|
G-8--9--8--8--9---11-|
D-9--9--9--8- 11--12-|
A-9--7--9--9--11--12-|
E-7--7--7--9--9---10-|


E-5-----5----------|
B----4-----4--6--7-|
G------------------|
D------------------|
A------------------|
E------------------|

Then back to the top. Repeat it one more time, but change the
ending from B E B B C#m D to B E B B C#m D Eb->Alumni Blues Riff.
Добавлено: 12.08.2013
Другие материалы по этой песне:
  • Аккорды и текст

Страница создана 12.08.2013
http://primanota.ru/phish/letter-to-jimmy-page-chords.htm
Привет, Гость.
Предлагаем пройти революционный курс по гитаре.
Подарок от PrimaNota.Ru, забирай!