PrimaNota.ru - самый крупный в мире бесплатный архив песенных текстов, аккордов, табулатур и нот


Phish - Harry Hood - аккорды и текст, таба, бас-таба, видео

Регистрация Запомнить меня
Войти через:  Facebook Google Twitter Vk Yandex Mail.ru

Phish - Harry Hood - аккорды и текст, таба, бас-таба, видео

Печатать
Просмотров: 292
Авторы: Brian Long, Page McConnell, Mike Gordon, Trey Anastasio, Jon Fishman

Harry Hood
Phish
		   sorry but the last version had some bugs i figure out.. please post
this version instead.

Filename :  Harry_hood.crd
Artist:  Phish

Thanks

Emil


----cut here-------
HARRY HOOD
---
Artist:  Phish  >{

---

Ok, This song took me a LONG time to sit down and figure out, but I
think I've gotten very close to having it down perfectly.  I used
the
version off A Live One for the Intro.  Keep in mind that these are
the CHORDS
UNDERLYING THE SONG, not the tabs.  Trey plays it differently every
time, but he always keeps the chords underneath constant (well, most
of
the time).  Sorry, but no timing information is availble.

---

INTRO:

Dm --> Am(V) x4
F --> Em x4 then Am(I)

E#9 (I don't think this is it, but it's close enough)


       .      .
      Dm   Em(VII) Am(V)
Harry!  Harry!  Where do you go when the lights go out x3
       .       .
      Dm    Em(VII) Am(V)        D
Harry!  Harry!  Where do you ... Go?

   This leads into :

(First D chord below is same as one written above "Go".. it continues
as
follows)

D A G x2

then

G Em F#m
G Em A(I)
D A G x2
G Em F#m
G Em A(I)

Then alternate between A(I) and E as necessary  ( listen to the song
for
timing)

G F#m Em F#m
G F#m Em F#m Em F#m G G#
A D E D E D x6
Dbm Bm A(I)

Alternate again between A(I) and E as necessary ( "  "  "  " )

D C  (I think.. this I was unsure about .. Part where Paige plays
right
before the part following):


Heavy Guitar w/ distortion (Trey solos over this, but I couldn't
figure
this 				part out)

Bm
THANK YOU MR. MINER!
A --> Bm

C#m
THANK YOU MR. MINER!
B C#m

Ebm
 E(VII)         A      E(VII)        A       E(VII)        A
  Thank you Mr. Miner.. Thank you Mr. Miner.. Thank you Mr. Miner..
 A
  Thank you Mr. Hood.....


CHORDS UNDERLYING JAM:

D A G


At the end of the Jam...

 ..G             D     A                G
    You can feel good, good, good about Hood... x4

       D
I FEEL GOOD!!

Chord Formations *I* Used :

   Dm  Am(V) F  Em  Am(I)  E#9  D   A   G  F#m G#  Bm  C#m Ebm
E(VII)
E--5----5----1---0----0---------5---5---3---2---4---7---9--11---7--
B--6----5----1---0----1----3----7---5---3---2---4---8--10--12---9--
G--7----5----2---0----2----2----7---6---4---2---5---9--11--13---9--
D--7----7----3---2----2----1----7---7---5---4---6---9--11--13---9--
A--5----7----3---2----0----2----5---7---5---4---7---7---9--11---7--
E--5----5----1---0--------------5---5---3---2---4---7---9--11---7--

   Em(VII)  A(I) E
E--7--------0----0
B--8--------2----0
G--9--------2----1
D--9--------2----2
A--7--------0----2
E--7-------------0
                                  Viva Trey!!

:)

   transcribed by Emil Hedaya, AKRR70B@PRODIGY.COM

If you find any errors, better way to play certain things, or figure
out
the TABS to this song (that would be great), PLEASE PLEASE PLEASE E
Mail
me








Transcribed by: Andrew Clemmer
Song: HARRY HOOD
Artist: PHISH

I'm a dunce about music and can't read worth a darn... I can't give you note
or chord names so I numbered the chord configurations... sorry if this is
annoying but once you get used to the chords (and the rhythm) you'll be able
to play the song.

Listen to the song to get the rhythm.


#1 #2 (x4)
#3 #4 (x4) #2 (let ring)


#1       #4       #2    (repeat the way the song goes)
harry..  harry..  where do you go when the lights go out?
#1       #4       #2                       #5 #6 #7
harry..  harry..  where.... do.... you.... go??????????

#8 #4 #9 (x2)
#5 #6 #7 (x2)
#8 #4 #9
#8 #4  then see "Closeup A"

Closeup A:

 =touch on
=touch off
/=slide up
\=slide down


E---0------0-------0---x----x------0----------|
B---0------0-------0---x----x------0----------|
G---6 7>6--9/11\9--6---9>7--13>11--6 7>6------|
D---7------7/9-\7--7---x----x------7----------|
A---0------0-------0---7----11-----0----------|
E---0------0-------0---0----0------0----------|

#11 #12 #13 #12 (x3)
#11 #12 #11 #14

A  D  E
pattern
(listen to the song)
It's building exitement part that returns later into "Closeup A"
and then goes into the angry distortion part.

I havn't figured out the angry distortion part yet... sorry.


Chords:

---#1----#2---#3----#4----#5---#6---#7---#8----#9----#10--#11--#12--#13--#14

E--x-----x----10----x-----0----0----0----x-----x-----0----0----0----0----0--
B--10----5----10----12----0----0----0----12----14----0----0----0----0----0--
G--10----5----10----12----7----6----9----12----14----6----4----2----0----5--
D--10----5----x-----12----7----7----7----12----14----7----5----4----2----6--
A--x-----x----12----x-----5----5----0----10----x-----0----0----0----0----0--
E--10----5----13----12----x----x----x----x-----14----0----0----0----9----0--


Andrew Clemmer
Clembake@UDel.edu

"This isn't who it would be if it wasn't who it is"

Clembake@UDel.edu
(302)-837-2415     
Добавлено: 22.11.2013
Другие материалы по этой песне:
  • Аккорды и текст

Страница создана 30.04.2012
http://primanota.ru/phish/harry-hood-chords.htm
Привет, Гость.
Предлагаем пройти революционный курс по гитаре.
Подарок от PrimaNota.Ru, забирай!