PrimaNota.ru - самый крупный в мире бесплатный архив песенных текстов, аккордов, табулатур и нот


Phish - Gotta Jibboo - текст песни, таба, видео

Регистрация Запомнить меня
Войти через:  Facebook Google Twitter Vk Yandex Mail.ru

Phish - Gotta Jibboo - текст песни, таба, видео

Печатать
Просмотров: 107
Уроки эстрадного вокала в Санкт-Петербурге
Авторы музыки: Tony Markellis, Russ Lawton
Авторы текста: Trey Anastasio
Gotta Jibboo
by PHISH off Farmhouse
Tabbed by Ryan Radcliff, rradclif@uci.edu

The song is mostly if not entirely E and D
This is the opening riff and the one used throughout
the song. Trey puts the third on top of the chord, =20
something very Hendrix:

E|--------------------------------------------------|
B|--------------------------------------------------|
G|--------9--7----7--------9-9--7----7--------------|
D|--------9--7----7--------9-9--7----7--------------|
A|----/11-------9-----9/11---------9----------------|
E|--------------------------------------------------|

The fast riff at the end of the chorus:
E|---0----------------------------------------------|
B|---0-/5--5p3p0------------------------------------|
G|---------------2p0------2p0-----------------------|
D|-------------------2--------2p0-------------------|
A|--------------------------------2p0---------------|
E|------------------------------------3b------------|

The solo is in E Mixolydian.

The climbing riff, in A Major, which is E Mixolydian:
E|--------------------------------14/16-------------|
B|---2--3--5--7--8--10--12--14----------------------|
G|---2--4--6--7--9--11--12--14----14/16-------------|
D|---2--4--6--7--9--11--12--14----------------------|
A|--------------------------------------------------|
E|--------------------------------------------------|

E|--------------------------------10/12-------------|
B|---2--3--5--7--8--10--12--14----------------------|
G|---2--4--6--7--9--11--12--14----11/13-------------|
D|---2--4--6--7--9--11--12--14----------------------|
A|--------------------------------------------------|
E|--------------------------------------------------|
     
Добавлено: 07.09.2013
Другие материалы по этой песне:
  • Аккорды и текст

Страница создана 28.07.2012
http://primanota.ru/phish/gotta-jibboo-chords.htm
Привет, Гость.
Предлагаем пройти революционный курс по гитаре.
Подарок от PrimaNota.Ru, забирай!