PrimaNota.ru - самый крупный в мире бесплатный архив песенных текстов, аккордов, табулатур и нот


Phish - Driver - аккорды и текст, видео

Регистрация Запомнить меня
Войти через:  Facebook Google Twitter Vk Yandex Mail.ru

Phish - Driver - аккорды и текст, видео

Печатать
Просмотров: 133
Авторы: Tom Marshall, Trey Anastasio

Driver
Phish
Driver     by phish

e-|-------3-3--0-------------------------3-3------------------------|
B-|-0~1-3-----0-3~-3-0-5-0-5-0-3~--0~1-3-----0-5p3~-3-0-1---(1)-----|
G-|------------------------------------------------------000--0000--|
D-|-----------------------------------------------------------------|
A-|-----------------------------------------------------------------|
E-|-----------------------------------------------------------------|

G                                   C               G
I'll tell you 'bout the driver that lives inside my head
G                C            Em           D
starts me up and stops me and puts me into bed
G                             C              G
he opens up my mouth when its time for me to talk
G               C                        G
and fires up my legs when he wants me to walk

Chorus:
C-riff
C             G     C               G
Keeps my eyes open  for most of the day
C          G          Em            D
adds to my memory the things people say
C               G        C               Em
when he makes decisions  I don't have to wait
C                                                    G
and sometimes it seems that he's got too much on his plate

Like this morning when I woke up and he dressed me in this shirt
it looks a little ragged when he dragged me through the dirt
I'm moving through this life and I'm thinking 'bout the next
I'm hoping when I get there I'll be better dressed

Chorus repeated with last line replaced with:
G
I'll tell you 'bout the driver
C                    G
that lives inside my head

C-riff
e|---------|
B|---------|
G|---------|
D|---------|
A|---0-2-3-|
E|-3-------|

contributors:  crzyfngr@aol.com and Kevin Snyder (taken from

alternative intro/verse
e|------------------------3--3----------------------------------|
B|-0--------1----3--------------------1—-0^3--------------------|
G|------------0-----------0-------------------------------------|
D|----0-------------0-----------2-----2-----0-----0-----0-----0-|
A|---------------------------3-----3----------------------------|
E|-3-----3-------3-----3-----------------3-----3-----3-----3----|


e|-------------0----------0-------------------------------------|
B|-3-----0-----------1----------0--—-----3-----3-----3-----3----|
G|---------------------------------------2-----2-----2-----2----|
D|----0-----0-----2-----2----2-----2--0-----------0-------------|
A|-------------3-----3----------------------0-----------0-------|
E|-3-----3----------------0-----0-------------------------------|

e|------------------------3--3----------------------------------|
B|-0--------1----3--------------------1—-0^3--------------------|
G|------------0-----------0-------------------------------------|
D|----0-------------0-----------2-----2-----0-----0-----0-----0-|
A|---------------------------3-----3----------------------------|
E|-3-----3-------3-----3-----------------3-----3-----3-----3----|

e|-------------------------------------------------------3------|
B|-3---3----3----0--1-----3-----3---—1-----3-----3--------------|
G|--------------------------------------------------------------|
D|---0--------0--------2----------2-----2-------------2---------|
A|---------------0--3--------3-------3--------3----------2------|
E|-3-----3-----------------------------------------------3------|

e|---------|
B|---------|
G|---------|
D|---------|
A|---0-2-3-|
E|-3-------|

Tabbed by Dan Orth, taken from strangedesign.org
Добавлено: 22.10.2013
Другие материалы по этой песне:
  • Аккорды и текст

Страница создана 22.10.2013
http://primanota.ru/phish/driver-chords.htm
Привет, Гость.
Предлагаем пройти революционный курс по гитаре.
Подарок от PrimaNota.Ru, забирай!