PrimaNota.ru - самый крупный в мире бесплатный архив песенных текстов, аккордов, табулатур и нот


Phish - Axilla part II - таба, видео

Регистрация Запомнить меня
Войти через:  Facebook Google Twitter Vk Yandex Mail.ru

Phish - Axilla part II - таба, видео

Печатать
Просмотров: 78
Уроки эстрадного вокала в Санкт-Петербурге
Авторы: Tom Marshall, Trey Anastasio



Axilla (Part II) from Hoist
Submited by: ben



^ means bend, pc means power chord
(each power chord twice)
                       C#pc  D#pc
------6-6-------6-6-----------------
------------------------------------
--8^-------8^-----------------------   2x
------------------------------------
------------------------------------
------------------------------------

------------------------------------
------------------------------------
----------6^------------------------
------8------8---6-8---6-8----------
----8--8-------8-----8--------------
--6------------------------9--------

------------------------------------
------------------------------------
-----------6^-----------------------
-------8------8---6-8---------------
-----8--8-------8-------------------
--6-------------------9-------------

Добавлено: 19.10.2013
Другие материалы по этой песне:
  • Аккорды и текст

Страница создана 19.10.2013
http://primanota.ru/phish/axilla-part-ii-chords.htm
Привет, Гость.
Предлагаем пройти революционный курс по гитаре.
Подарок от PrimaNota.Ru, забирай!