PrimaNota.ru - самый крупный в мире бесплатный архив песенных текстов, аккордов, табулатур и нот


Philmore - Our Finest Hour - текст песни, таба, бас-таба, видео

Регистрация Запомнить меня
Войти через:  Facebook Google Twitter Vk Yandex Mail.ru

Philmore - Our Finest Hour - текст песни, таба, бас-таба, видео

Печатать
Просмотров: 171
Our Finest Hour
Philmore
Tabbed by Craig

These are pretty much exactly right, maybe a few hammer-ons or pull-offs that are 
or wrong

Opening Riff
Guitar 1
1:---------|
2:-6-5-----|
3:-----5---|
4:---------|
5:---------|
6:---------|

Guitar 2
1:---------|
2:---------|
3:-7-5-----|
4:-----7---|
5:---------|
6:---------|

Pre-verse Solo
Guitar 1
1:-3h5--5-5-5--5-5\3-3\1-1--1-1-1--1-1/5-3--3-3-3—5-5h6-5--------------|
2:---------------------------------------------------------------------|
3:---------------------------------------------------------------------|
4:---------------------------------------------------------------------|
5:---------------------------------------------------------------------|
6:---------------------------------------------------------------------|

Guitar 2
1:---------------------------------------------------------------------|
2:-5h6--6-6-6--6-6\5-5\3-3--3-3-3--3-3/6-5--5-5-5—6-6h8-6--------------|
3:---------------------------------------------------------------------|
4:---------------------------------------------------------------------|
5:---------------------------------------------------------------------|
6:---------------------------------------------------------------------|


Post-Chorus Solo
Guitar 1
1:-5-3-5---5-3-5---5-3-5---5-3-5---5-3-5---5-3-5---5-3-5---5-3-5-------|
2:-------6-------6-------6-------6-------3-------3-------3-------3-----|
3:---------------------------------------------------------------------|
4:---------------------------------------------------------------------|
5:---------------------------------------------------------------------|
6:---------------------------------------------------------------------|

1:-5-3---3h5--3-3-3--1h3-1--0—0/5—5h6-5--///17-15----17-15-------------|
2:-----6------------------------------------------18-------18----------|
3:---------------------------------------------------------------------|
4:---------------------------------------------------------------------|
5:---------------------------------------------------------------------|
6:---------------------------------------------------------------------|

1:-17-17-15-17---17-15-17----17-15-17----17-15-17----17-15-17----------|
2:-------------18---------18----------18----------15----------15-------|
3:---------------------------------------------------------------------|
4:---------------------------------------------------------------------|
5:---------------------------------------------------------------------|
6:---------------------------------------------------------------------|

1:-17-15-17----17-15-17----17-15----15h17--15-15-15--13h15-13-12-------|
2:----------15----------15-------18------------------------------------|
3:---------------------------------------------------------------------|
4:---------------------------------------------------------------------|
5:---------------------------------------------------------------------|
6:---------------------------------------------------------------------|

1:-12/17—17h18-17---|
2:------------------|
3:------------------|
4:------------------|
5:------------------|
6:------------------|

Guitar 2
1:---------------------------------------------------------------------|
2:-6-5-6---6-5-6---6-5-6---6-5-6---6-5-6---6-5-6---6-5-6---6-5-6-------|
3:-------7-------7-------7-------7-------------------------------------|
4:---------------------------------------8-------8-------8-------8-----|
5:---------------------------------------------------------------------|
6:---------------------------------------------------------------------|

1:---------------------------------------------------------------------|
2:-6-5---5h6--5-5-5--3h5-3--1—1/6—6h8-6--///18-17----18-17-------------|
3:-----6------------------------------------------19-------19----------|
4:---------------------------------------------------------------------|
5:---------------------------------------------------------------------|
6:---------------------------------------------------------------------|

1:---------------------------------------------------------------------|
2:-18-18-17-18----18-17-18----18-17-18----18-17-18----18-17-18---------|
3:-------------19----------19----------19------------------------------|
4:-------------------------------------------------20----------20------|
5:---------------------------------------------------------------------|
6:---------------------------------------------------------------------|

1:---------------------------------------------------------------------|
1:-18-17-18----18-17-18----18-17----17h18--17-17-17--15h17-15-13-------|
2:-------------------------------19------------------------------------|
4:----------20----------20---------------------------------------------|
5:---------------------------------------------------------------------|
6:---------------------------------------------------------------------|

1:------------------|
2:-13/18—18h20-18---|
3:------------------|
4:------------------|
5:------------------|
6:------------------|

Bridge Solo
Guitar 1
1:----------------------------3h5-5-5po3-3-3-3\1-1h3po1-0-1-1/5-5h6-5--|
2:-8b10b8-6-8b10-8b10b8-6----------------------------------------------|
3:------------------------7--------------------------------------------|
4:---------------------------------------------------------------------|
5:---------------------------------------------------------------------|
6:---------------------------------------------------------------------|

1:-17-15-13-15b17—15b17b15-13-----15h17-17-17po15-15-15-15\13----------|
2:----------------------------15---------------------------------------|
3:---------------------------------------------------------------------|
4:---------------------------------------------------------------------|
5:---------------------------------------------------------------------|
6:---------------------------------------------------------------------|

1:-13h15po13-12-13-13/17-17h18-17--------------------------------------|
2:---------------------------------------------------------------------|
3:---------------------------------------------------------------------|
4:---------------------------------------------------------------------|
5:---------------------------------------------------------------------|
6:---------------------------------------------------------------------|

Guitar 2
1:---------------------------------------------------------------------|
2:-5b6b5-3-5b6-5b6b5-3-----5h6-6-6po5-5-5-5\3-3h5po3-1-1-1/6-6h8-6-----|
3:---------------------3-----------------------------------------------|
4:---------------------------------------------------------------------|
5:---------------------------------------------------------------------|
6:---------------------------------------------------------------------|

1:---------------------------------------------------------------------|
2:-18-17-15-17b18—17b18b17-15-----17h18-18-18po17-17-17-17\15----------|
3:----------------------------15---------------------------------------|
4:---------------------------------------------------------------------|
5:---------------------------------------------------------------------|
6:---------------------------------------------------------------------|

1:---------------------------------------------------------------------|
2:-15h17po15-13-13-13/18-18h20-18--------------------------------------|
3:---------------------------------------------------------------------|
4:---------------------------------------------------------------------|
5:---------------------------------------------------------------------|
6:---------------------------------------------------------------------|
Добавлено: 13.03.2012
Другие материалы по этой песне:

Страница создана 13.03.2012
http://primanota.ru/philmore/our-finest-hour-chords.htm
Привет, Гость.
Предлагаем пройти революционный курс по гитаре.
Подарок от PrimaNota.Ru, забирай!