PrimaNota.ru - самый крупный в мире бесплатный архив песенных текстов, аккордов, табулатур и нот


Philmont - I Cant Stand To Fall - текст песни, таба, бас-таба, видео

Регистрация Запомнить меня
Войти через:  Facebook Google Twitter Vk Yandex Mail.ru

Philmont - I Cant Stand To Fall - текст песни, таба, бас-таба, видео

Печатать
Просмотров: 167
Artist: Philmont
Album: Attention
Song: Can't Stand To Fall
Tuning: Eb (Eb Ab Db Gb Bb eb)


Intro:
eb--------------------------------------------------------------------|
Bb--------------------------------------------------------------------|
Gb--3-3-333---------5-5-5557-77-77773-3-3337-77-777755-555-555-555xx--|
Db--3-3-3333-33-33335-5-5557-77-77773-3-3337-77-777755-555-555-555xx--|
Ab--1-1-1113-33-33333-3-3335-55-55551-1-1115-55-555533-333-333-333xx--|
Db---------3-33-3333--------------------------------------------------|

Verse 1:
eb--------------------------------------------------------------------|
Bb--------------------------------------------------------------------|
Gb--------------------------------------------------------------------|
Db--------------------------------------------------------------------|
Ab------8--8----8--8----8--8----8--8----8--8----8--8----8--8----8--8--|
Db--8888-88-8888-88-0000-00-0000-00-8888-88-8888-88-0000-00-0000-00---|
    .... .. .... .. .... .. .... .. .... .. .... .. .... .. .... ..


eb--------------------------------------------|
Bb------10--10----10--10----10--10----10--10--|
Gb------10--10----10--10----10--10----10--10--|
Db--8888--88--8888--88--0000--00--0000--00----|
Ab--8888--88--8888--88--0000--00--0000--00----|
Db--8888--88--8888--88--0000--00--0000--00----|
    ....  ..  ....  ..  ....  ..  ....  ..

eb----------------------------------|
Bb----------------------------------|
Gb--101010----10--10101010----------|
Db--7-7-7-----7---7-7-7-7-----------|
Ab--8-8-8-----8---8-8-8-8-----------|
Db----------------------------------|

Choruses = same as Intro

Verse 2 (“but now I realize”)
eb------------------------------------|
Bb------------------------------------|
Gb------------------------------------|
Db--88888888888888880000000000000000--|    2x
Ab--88888888888888880000000000000000--|
Db--88888888888888880000000000000000--|
    ................................


eb--8-8-8-8-8-8-8-8-8-8-8-8-8-8-8-8----|
Bb--8-8-8-8-8-8-8-8-8-8-8-8-8-8-8-8----|
Gb--10101010101010101010101010101010---|
Db--10101010101010101010101010101010---|
Ab-------------------------------------|
Db-------------------------------------|


Bridge:
eb-----------------------------------|
Bb-----------------------------------|
Gb-----------------------------------|
Db--0--------------------------------|
Ab--0--------------------------------|
Db--0--------------------------------|


eb-------------------------------------------------------------------|
Bb--------5---------------5---------------8---------------8----------|
Gb----5-------5---5---5-------5---5---9-------9---9---9-------9---9--|
Db------3-------3-------3-------3-------7-------7-------7-------7----|
Ab--5---------------5--------------/8---------------8----------------|
Db-------------------------------------------------------------------|

eb-------------------------------------------------------------------|
Bb--------10--------------10-------------10--------------8-----------|
Gb----10------10--10--10------10--10-10------10--10--9-------9----9--|
Db------8-------8-------8-------8------10------10------10------10----|
Ab--8-------------------------------8--------------7-----------------|
Db--8---------------8------------------------------------------------|

eb-------------------------------------------------------------------|
Bb--------5---------------5---------------8---------------8----------|
Gb----5-------5---5---5-------5---5---9-------9---9---9-------9---9--|
Db------3-------3-------3-------3-------7-------7-------7-------7----|
Ab--5---------------5--------------/8---------------8----------------|
Db-------------------------------------------------------------------|

eb---------------------------------------------------------|
Bb--------6---------------6---------------6---------5------|
Gb----5-------5---5---5-------5---5---5-------5-----5------|
Db------5-------5-------5-------5-------5-------5---5------|
Ab--3---------------3---------------3---------------3------|
Db---------------------------------------------------------|


Soft Chorus (over piano):
eb--12------------------8-----------------8-------------------------8----|
Bb--10------------------10----------------8-------------------------8----|
Gb--10------------------10----------------10------------------------9----|
Db-----------------------------------------------------------------------|
Ab-----------------------------------------------------------------------|
Db-----------------------------------------------------------------------|

Back to Big Chorus (“without you”):
eb----------------------------------------|
Bb----------------------------------------|
Gb--5-------------------------------------|
Db--5---------------------8-8-----3-3-----|
Ab--3---------------------8-8-----3-3-----|
Db------------------------8-8-----3-3-----|
Добавлено: 15.05.2012
Другие материалы по этой песне:
  • Аккорды и текст

Страница создана 15.05.2012
http://primanota.ru/philmont/i-cant-stand-to-fall-chords.htm
Привет, Гость.
Предлагаем пройти революционный курс по гитаре.
Подарок от PrimaNota.Ru, забирай!