PrimaNota.ru - самый крупный в мире бесплатный архив песенных текстов, аккордов, табулатур и нот


Philmont - Hello Jack - текст песни, таба, видео

Регистрация Запомнить меня
Войти через:  Facebook Google Twitter Vk Yandex Mail.ru

Philmont - Hello Jack - текст песни, таба, видео

Печатать
Просмотров: 302
This is Hello, Jack from Philmont's first major debut album Attention...
All credit goes to Josiah Prince, Lead Guitarist and Backing Vocals of Philmont. I 
just posted it... Check them out at www.myspace.com/philmontrock...

Artist: Philmont
Album: Attention/Photosynthetic EP
Tuning: Dropped D then Half Step Down
Tab Type: Lead Guitar AND Rhythm Guitar

Intro (soft):
Eb----0---0---0---0---0---0---0---0---0---0---0---0---0---0---0---0--|
Bb--10--10--10--10--10--10--10--10--10--10--10--10--10--10--10--10---|
Gb--10--10--10--10--10--10--10--10--10--10--10--10--10--10--10--10---|
Db----------------------------------8---8---8---8---7---7---7---7----|
Ab-------------------------------------------------------------------|
Db-------------------------------------------------------------------|

Intro (heavy): RHYTHM
Eb--------------------------------------------|
Bb--------------------------------------------|
Gb-----7777------775533----7777------775533---|
Db--0--xxxx-00-0-xx5533-0--xxxx-00-0-xx5533---|
Ab--0--5555-00-0-553311-0--5555-00-0-553311---|
Db--0-------00-0--------0-------00-0----------|

Intro (heavy):  LEAD
Eb-----------------------------|
Bb-----------------------------|
Gb----10101010----10109-9-7-7--|
Db----x-x-x-x-----x-x-x-x-x-x--|
Ab----8-8-8-8-----8-8-7-7-5-5--|
Db-----------------------------|


Verse:

Eb---------------------------------------------------------------------|
Bb---------------------------------------------------------------------|
Gb---------------------------------------------------------------------|
Db--0-------3-------8-------5-------33333333333333333333333333333333---|
Ab--0-------3-------8-------5-------33333333333333333333333333333333---|
Db--0-------3-------8-------5-------33333333333333333333333333333333---|
PM                                  ................................

Pre-Chorus:

Eb--------------------------------------------------------------|
Bb--------------------------------------------------------------|
Gb--------------------------------------------------------------|
Db--88-----8-8-8-8-855-----5-5-5-55588-----8-8-8-888555555555---|
Ab--88-----8-8-8-8-855-----5-5-5-55588-----8-8-8-888555555555---|
Db--88-----8-8-8-8-855-----5-5-5-55588-----8-8-8-888555555555---|


Chorus:

Eb--------------------------------------------------------------|
Bb--------------------------------------------------------------|
Gb--10-1010-10101012--1212-121212-10-1010-10101010-1010-101010--|
Db--8--8-8--8-8-8-10--1010-101010-7--7-7--7-7-7-8--8-8--8-8-8---|
Ab--8--8-8--8-8-8-10--1010-101010-8--8-8--8-8-8-8--8-8--8-8-8---|
Db--8--8-8--8-8-8-10--1010-101010-7--7-7--7-7-7-8--8-8--8-8-8---|


Eb-------------------------------------------------------|
Bb-------------------------------------------------------|
Gb--7--7-7--7-7-7-12--1212-121212---7777------777777-----|
Db--5--5-5--5-5-5-10--1010-101010-0-xxxx-00-0-xxxxxx-----|
Ab--5--5-5--5-5-5-10--1010-101010-0-5555-00-0-555555-----|
Db--5--5-5--5-5-5-10--1010-101010-0------00-0------------|

Eb------------------------------------------------------------|
Bb------------------------------------------------------------|
Gb--10-10-101010-9--9-9--9-9-9-7--7-7--7-7-7--10-1010-101010--|
Db--8--8--8-8-8--7--7-7--7-7-7-0--0-0--0-0-0--7--7-7--7-7-7---|
Ab--8--8--8-8-8--7--7-7--7-7-7-0--0-0--0-0-0--8--8-8--8-8-8---|
Db--8--8--8-8-8--7--7-7--7-7-7-0--0-0--0-0-0--7--7-7--7-7-7---|


Eb-------------------------------------|
Bb-------------------------------------|
Gb--10-1010-101010-12--1212--12121212--|
Db--8--8-8--8-8-8--10--1010--10101010--|
Ab--8--8-8--8-8-8--10--1010--10101010--|
Db--8--8-8--8-8-8--10--1010--10101010--|


Bridge ("we're not getting out"):
Eb-------------------------------------|
Bb-------------------------------------|
Gb-------------------------------------|
Db--0--0--0--0--0-0-0--0--0--0--0-0-0--|
Ab--0--0--0--0--0-0-0--0--0--0--0-0-0--|
Db--0--0--0--0--0-0-0--0--0--0--0-0-0--|


Bridge ("chaos"): RHYTHM
Eb-----------------------------------|
Bb-----------------------------------|
Gb--77----7-33----3-55----5-55----5--|
Db--77----7-33----3-55----5-55----5--|    4x
Ab--55----5-11----1-33----3-33----3--|
Db-----------------------------------|
PM  ..    . ..    . ..    . ..    .


Eb----------------------------------|
Bb----------------------------------|
Gb--7---7---10--10--12--12--12--12--|
Db--7---7---8---8---10--10--10--10--|      3x
Ab--5---5---8---8---10--10--10--10--|
Db--0---0---8---8---10--10--10--10--|

("buried in the snow"): RHYTHM
Eb----------------------------------------------------------|
Bb----------------------------------------------------------|
Gb--10--10--9-9---------------------------------------------|
Db--8---8---7-7---0-----------------8---5---7-7---0---------|
Ab--8---8---7-7---0-----------------8---5---7-7---0---------|
Db--8---8---7-7---0-----------------8---5---7-7---0---------|

Bridge ("chaos"): LEAD
Eb-------------------------------------------------------------------|
Bb--10------10------11------11------8-------8-------8-------8--------|
Gb----10--10--10--10--10--10--10--10--9---9---9---9---9---9---9---9--|
Db------12------12------12------12------10------10------10------10---|  4x
Ab-------------------------------------------------------------------|
Db-------------------------------------------------------------------|
PM  . . . . . . . . . . . . . . . . . . . . . . . . . . . . . . . .

("buried in the snow"): LEAD
Eb-------------------------------------------------------------|
Bb------------------------------10-----------------------------|
Gb--10--10--9-9---7---//10-9-10----9-10~~--3---5---6-6---7-----|
Db--x---x---x-x---x------------------------x---x---x-x---x-----|
Ab--8---8---7-7---5------------------------1---3---4-4---5-----|
Db-------------------------------------------------------------|

Soft chorus:
Eb----8---------8---------12--------12------------------------|
Bb-------10--------10---------13--------13---10-----------8---|
Gb----------10-------10---------10--------10-9-----------9----|
Db--8---8-----8---8---//12--12----12--12-----10--------10-----|
Ab------------------------------------------------------------|
Db------------------------------------------------------------|

Final Chorus ("look around us"): LEAD
Eb--------------------------------------------------------------------------|
Bb--------------------------------------------------------------------------|
Gb-----5-55/777/9-99/121212\10-1010/141414\10-1010/171717\10-1010/141414\12-|
Db-----x-xx/xxx/x-xx/x-x-x-\x--x-x-/x-x-x-\x--x-x-/x-x-x-\x--x-x-/x-x-x-\x--|
Ab---0-3-33/555/7-77/101010\8--8-8-/121212\8--8-8-/151515\8--8-8-/121212\10-|
Db-35-----------------------------------------------------------------------|
PM  ...

Ending:
Eb----------------------------------|
Bb----------------------------------|
Gb----------------------------------|
Db--0---0---0---0---0---------------|
Ab--0---0---0---0---0---------------|
Db--0---0---0---0---0---------------|


Philmont!!!
Check out my other tabs if you enjoyed this one!!!!!
Добавлено: 19.05.2012
Другие материалы по этой песне:
  • Аккорды и текст

Страница создана 19.05.2012
http://primanota.ru/philmont/hello-jack-chords.htm
Привет, Гость.
Предлагаем пройти революционный курс по гитаре.
Подарок от PrimaNota.Ru, забирай!