PrimaNota.ru - самый крупный в мире бесплатный архив песенных текстов, аккордов, табулатур и нот


Phillip Phillips - Thicket - таба, видео

Регистрация Запомнить меня
Войти через:  Facebook Google Twitter Vk Yandex Mail.ru

Phillip Phillips - Thicket - таба, видео

Печатать
Просмотров: 131
-------------------------------------------------------------------------------
                            Thicket - Phillip Phillips
-------------------------------------------------------------------------------
Tabbed by: Tyler Callahan
E-mail: tcsport1@gmail.com

This is an amazing song by Phillip Phillips

This is how he plays it live
and pretty much the album version too

Tuning: Standard tuning

Intro (mute)
e|---------------------------------------------------------------------------|
B|---------------------------------------------------------------------------|
G|-----------7-7-7-8-8-8--------------------7-7-7-------5-5-5----------------|
D|------------------------10-10-10----8-8-8-------7-7-7----------------------|
A|--10-10-10-----------------------------------------------------------------|
E|---------------------------------------------------------------------------|

VERSE (where he starts singing)
"I didn't mean to let you" (strumming not to hard to figure out)
e|-----------------------------------------------------------------------|
B|----------------------4------------------------------------------------|
G|-------3-------3------3-------3-------3-------3------------------------|
D|-------0-------0------1-------0-------0-------x------------------------|2x
A|-------x-------1--------------x-------1-------3------------------------|
E|-------3-------x--------------3----------------------------------------|

VERSE 2
"..when the cracks in your skin start to show"
e|---------------------------------------------------------------------------|
B|-----4--------6------------------------------------------------------------|
G|-----0--------0------------------------------------------------------------|
D|-----5--------7------------------------------------------------------------|
A|-----6--------8------------------------------------------------------------|
E|---------------------------------------------------------------------------|


INTRO 2x (part where he stops singing)

VERSE
"Paint a picture of an apple in a tree" (starts singing again)
e|-----------------------------------------------------------------------|
B|----------------------4------------------------------------------------|
G|-------3-------3------3-------3-------3-------3------------------------|2x
D|-------0-------0------1-------0-------0-------x------------------------|
A|-------x-------1--------------x-------1-------3------------------------|
E|-------3----------------------3----------------------------------------|


PRE-CHORUS (same as VERSE 2)
"you jump and see where he leads"
e|---------------------------------------------------------------------------|
B|-----4--------6------------------------------------------------------------|
G|-----0--------0------------------------------------------------------------|
D|-----5--------7------------------------------------------------------------|
A|-----6--------8------------------------------------------------------------|
E|---------------------------------------------------------------------------|



CHORUS

"Our love was just a dream, just a dream (strumming pattern not difficult)
e|---------------------------------------------------------------------------|
B|--6------6-------8-------6-------------------------------------------------|
G|--7------x-------7-------5-------------------------------------------------|
D|--8------7-------5-------3-------------------------------------------------|2X
A|---------------------------------------------------------------------------|
E|---------------------------------------------------------------------------|

"Oh and you know" (second part of chorus)(mute the other strings)
e|---------------------------------------------------------------------------|
B|---4------6------6------6------8------6------4-----6-----------------------|
G|---3------5------7------x------7------5------3-----5-----------------------|
D|---1------3------8------7------5------3------1-----3-----------------------|
A|---------------------------------------------------------------------------|
E|---------------------------------------------------------------------------|




*AFTER THE LAST CHORUS* 
 *Phil plays this until the end of the song*

OUTRO
"La Da Do La Da Do La...." (he sings something like that)
e|---------------------------------------------------------------------------|
B|---------------------------------------------------------------------------|
G|------------------------8----7----5----10----------------------------------|
D|---8----7----5----3-----x----x----x-----x----------------------------------|
A|---x----x----x----x-----6----5----3-----8----------------------------------|
E|---6----5----3----1--------------------------------------------------------|

Intro
Verse 1
Verse 2
Intro 
Verse 1 (starts singing again) 
Verse 2/Pre-Chorus
Chorus
Intro 
Verse 1 (starts singing again)
Verse 2/Pre-Chorus
Chorus
Intro 
Verse 1 (starts singing again)
Verse 2/Pre-Chorus
Chorus 
Outro 


I didn't mean to let you down
I grabbed for your hand but you took it back
Trying hard not to let feelings show
Will only hurt you in the future when the cracks in your skin start to show
Paint a picture of an apple in a tree
Is that all that's there through the thicket of the leaves?
Yes, yes now you see
The bird flying out why don't you jump and see where he leads
Our love was just a dream, just a dream
With all my heart I gave you everything, everything
Oh and you know
That it all goes around and round
Cause you tumbled me down
Troubles seem to get to you
Brush them off, they're only worries, push on through
Hear the heart that beats for your soul
He who has nothing, should not complain, we all have something of our own
Our love was just a dream, just a dream
With all my heart I gave you everything, everything
Oh and you know
That it all goes around and round
Cause it all goes around and round
Was it wrong what I did to get to you
I felt I was the one to help pull you through
And I know, I know it's alright
I found a way out, I found a way out
Our love was just a dream, just a dream
With all my heart I gave you everything, everything
Oh and you know
That it all goes around and round
Cause it all goes around and round





| /   slide up
| \   slide down
| h   hammer-on
| p   pull-off
| ~   vibrato
| +   harmonic
| x   Mute note
| b   Bend
| pb  Pre-bend
| br  Bend release
| pbr Pre-bend release
| brb Bend release bend

************************************
Добавлено: 25.11.2014
Другие материалы по этой песне:
  • Аккорды и текст

Страница создана 25.11.2014
http://primanota.ru/phillip-phillips/thicket-chords.htm
Привет, Гость.
Предлагаем пройти революционный курс по гитаре.
Подарок от PrimaNota.Ru, забирай!