PrimaNota.ru - самый крупный в мире бесплатный архив песенных текстов, аккордов, табулатур и нот


Philippine Violators - Hoy Hoy - таба, видео

Регистрация Запомнить меня
Войти через:  Facebook Google Twitter Vk Yandex Mail.ru

Philippine Violators - Hoy Hoy - таба, видео

Печатать
Просмотров: 169
Уроки эстрадного вокала в Санкт-Петербурге
Tabs for song: Hoy! Hoy! Hoy!
Artist: Philippine Violators
Album: Sikat na si pedro
Tabbed by: Ferdie Esguerra
Email: Dhex_armageddon@yahoo.com

Legend:

 |   p   Pull-off
 |   h   Hammer-on
 |   /   Slide up
 |   \   Slide down

*********************************************************************************

Intro Chords: C-Am-F-G

1st stanza:
Sa pag-ikot ng mundo, anong nakita mo?
Wala ka bang napapansin sa ihip ng hangin?
Malawak nga ang lupa, lupa nang kawalan
At ang maitim na usok ay tumatakip na sa ating isipan.

Refrain: Chord pattern (F-G)
Ito na ba ang pagbabago, na sinasabi mo?

Chorus: C-Am-F-G

At ang sabi ko'y hoy!, hoy! hoy!, hoy!, hoy!, hoy!
(Anong nakita mo?) (nasaan ang katahimikan?)
hoy!, hoy! hoy!, hoy!, hoy!, hoy!
(ikaw ba ay kuntento?) (Bakit hindi ko maramdaman?)
hoy!, hoy! hoy!, hoy!, hoy!, hoy!
Buksan ang iyong mata
hoy!, hoy! hoy!, hoy!, hoy!, hoy!
at bigyan mo ako ng pag-asa.

Chord pattern: C-Am (2x) F-G
Ahh…ha, ha.

2nd stanza: do 1st chords:
Mga bata sa lansangan wala pa ring masisilungan
Habang ang mga buhaya'y nakangiti sa kanyang upuan
At ang katahimikan hindi ko na maramdaman
Pagka't silang naka-pwesto, silang gumagawa ng kalokohan.

Repeat refrain:
Do chorus:

Guitar Solo: Chord pattern ( C-Am-F-G)

e||-----------------------------------------------------------------------------------|
A||---6--/--8--6—5h—6h--5---------5---------------------------------------------------|
D||----------------------------------7-------7---5h--7—5-------5--------5h—7h--5---7--|
B||-------------------------------------------------------------7-------7-------------|
G||-----------------------------------------------------------------------------------|
E||-----------------------------------------------------------------------------------|

    -------------------------------------------------------------------8---7---7h--8--7---10--|
    ------------8--------------8---10---8----------------8h--10-------------------------------|
    ---7-/--9-------9h--11------------------9h---11-------------------------------------------|
    ------------------------------------------------------------------------------------------|
    ------------------------------------------------------------------------------------------|
    ------------------------------------------------------------------------------------------|

e||-----12h—8--10---8—(5x)----8h--5---7---5—(3x)---5--7—8/---10--|
B||--------------------------------------------------------------|
G||--------------------------------------------------------------|
D||--------------------------------------------------------------|
A||--------------------------------------------------------------|
E||--------------------------------------------------------------|

    -----15---15---15---13---13---13---12---12---12-----------------------------------------|
    -----------------------------------------------------------15---15--15--13--15—15p--15--|
    ----------------------------------------------------------------------------------------|
    ----------------------------------------------------------------------------------------|
    ----------------------------------------------------------------------------------------|
    ----------------------------------------------------------------------------------------|

    -----13---12h--13—12/--10---10h--12---10/---8---8/---12----------|
    -----------------------------------------------------------------|
    -----------------------------------------------------------------|
    -----------------------------------------------------------------|
    -----------------------------------------------------------------|
    -----------------------------------------------------------------|

Do 1st stanza:
Do chorus:
END.

I haven't seen this tab posted so ill post with my own.
Pinoy funk/Rock alternative id never be forgotten.
Dedicated to my loving wife and son “ Rosan and Kurt Cobain”
To all my friends out there, my ormer band “Selda Singko” Urrutia boys ng malanday valenzuela
Musta kayo dyan. Sa mga music lover gud luck “ IT'S TOO LOUD. YOUR TOO OLD!!!” (07Oct2006)
Any suggestion and comments just email me at” dhex_armageddon@yahoo.com”
Добавлено: 04.03.2012
Другие материалы по этой песне:
  • Аккорды и текст

Страница создана 04.03.2012
http://primanota.ru/philippine-violators/hoy-hoy-chords.htm
Привет, Гость.
Предлагаем пройти революционный курс по гитаре.
Подарок от PrimaNota.Ru, забирай!