PrimaNota.ru - самый крупный в мире бесплатный архив песенных текстов, аккордов, табулатур и нот


Philippe Nix - Stille - бас-таба, видео

Регистрация Запомнить меня
Войти через:  Facebook Google Twitter Vk Yandex Mail.ru

Philippe Nix - Stille - бас-таба, видео

Печатать
Просмотров: 57
Stille

Pre-Chorus
|----------------|----------------|
|----------------|----------------|
|3---3-3---------|--------3---3-3-|
|--------1---1-1-|3---3-3---------|

Refrain
|----------------|----------------|----------------|----------------|
|----------------|----------------|----------------|----------------|
|3-3-3-3-3-3-3-3-|----------------|----------------|----------------|
|----------------|1-1-1-1-1-1-1-1-|3-3-3-3-3-3-3-3-|3-3-3-3-3-3-3-3-|

Strophe
|--------|--------|--------|--------|--------|--------|--------|--------|
|--------|--------|--------|--------|--------|--------|--------|--------|
|3-3-3-3-|3-3-3-3-|3-3-3-3-|3-3-3-3-|--------|3-3-3-3-|--------|--------|
|--------|--------|--------|--------|3-3-3-3-|--------|1-1-3-3-|1-1-3-3-|

Break
|----------------|----------------|
|----------------|----------------|
|3-3-3-3-3-3-3-3-|3---------------|
|----------------|----------------|

Schlusston
|----------------|
|----------------|
|3---------------|
|----------------|

Verlauf
8 Takte Pause | Break | 2x Pre-Chorus | Refrain | Strophe | Break |
2x Pre-Chorus | Refrain | Schlusston

Check out:
- http://www.youtube.com/Basketballfreaky
- http://www.webnixe.net/Philippe
Добавлено: 10.07.2013
Другие материалы по этой песне:
  • Аккорды и текст

Страница создана 10.07.2013
http://primanota.ru/philippe-nix/stille-chords.htm
Привет, Гость.
Предлагаем пройти революционный курс по гитаре.
Подарок от PrimaNota.Ru, забирай!