PrimaNota.ru - самый крупный в мире бесплатный архив песенных текстов, аккордов, табулатур и нот


Philippe Nix - Satellite - бас-таба, видео

Регистрация Запомнить меня
Войти через:  Facebook Google Twitter Vk Yandex Mail.ru

Philippe Nix - Satellite - бас-таба, видео

Печатать
Просмотров: 69
Satellite

4x Strophe
|--------|--------|--------|--------|--------|--------|--------|--------|
|--------|--7---7-|--------|--7---7-|--------|--7---7-|--4---4-|--4---4-|
|--4---4-|5----5--|--4---4-|5----5--|--4---4-|5----5--|2--2-2-2|2--2-2-0|
|2----2--|--------|2----2--|--------|2----2--|--------|--------|--------|

Break I
|--------|--------|
|--------|--------|
|44444444|--------|
|--------|--------|

Break II
|--------|--------|--------|--------|--------|--------|--------|--------|
|--------|--------|--------|--------|--------|--------|--------|------24|
|2--5----|4-------|2225-55-|4-4-----|2--5----|4-------|2225-55-|----24--|
|--------|---2----|--------|--------|--------|---2----|--------|2-24----|

Refrain
|--------|--------|--------|--------|--------|--------|--------|
|--------|--------|--------|--------|--------|--------|--------|
|44444444|55555555|22222222|44444444|44444444|55555555|22222222|
|--------|--------|--------|--------|--------|--------|--------|

3x Strophe
|--------|--------|--------|--------|--------|--------|--------|--------|
|--------|--7---7-|--------|--7---7-|--------|--7---7-|--4---4-|--4---4-|
|--4---4-|5----5--|--4---4-|5----5--|--4---4-|5----5--|2--2-2-2|2--2-2-0|
|2----2--|--------|2----2--|--------|2----2--|--------|--------|--------|

Break I
|--------|--------|
|--------|--------|
|44444444|--------|
|--------|--------|

Break II
|--------|--------|--------|--------|--------|--------|--------|--------|
|--------|--------|--------|--------|--------|--------|--------|------24|
|2--5----|4-------|2225-55-|4-4-----|2--5----|4-------|2225-55-|----24--|
|--------|---2----|--------|--------|--------|---2----|--------|2-24----|

Refrain
|--------|--------|--------|--------|--------|--------|--------|
|--------|--------|--------|--------|--------|--------|--------|
|44444444|55555555|22222222|44444444|44444444|55555555|22222222|
|--------|--------|--------|--------|--------|--------|--------|

Break III
|--------|--------|--------|--------|--------|--------|
|--------|--------|--------|--------|--------|--------|
|--------|44444444|55555555|22222222|44444444|--------|
|22222222|--------|--------|--------|--------|--------|

Break IV
|--------|--------|--------|--------|--------|--------|--------|--------|
|--------|--------|--------|--------|--------|--------|--------|--------|
|2--5----|4-------|2225-55-|4-4-----|2--5----|4-------|2225-55-|--------|
|--------|---2----|--------|--------|--------|---2----|--------|2-------|

Verlauf
4x Strophe | 1x Break I | 1x Break II | 1x Refrain | 3x Strophe | 1x Break I |
 1x Break II | 1x Refrain | 1x Break III | Break IV

Check out:
- http://www.youtube.com/Basketballfreaky
- http://www.webnixe.net/Philippe
Добавлено: 12.06.2013
Другие материалы по этой песне:
  • Аккорды и текст

Страница создана 12.06.2013
http://primanota.ru/philippe-nix/satellite-chords.htm
Привет, Гость.
Предлагаем пройти революционный курс по гитаре.
Подарок от PrimaNota.Ru, забирай!