PrimaNota.ru - самый крупный в мире бесплатный архив песенных текстов, аккордов, табулатур и нот


Philipp Dittberner - Wolke 4 Live - аккорды и текст, таба, видео

Регистрация Запомнить меня
Войти через:  Facebook Google Twitter Vk Yandex Mail.ru

Philipp Dittberner - Wolke 4 Live - аккорды и текст, таба, видео

Печатать
Просмотров: 207
Wolke 4 Live
Philipp Dittberner
Philipp Dittberner - Wolke 4 Live

Capo: 4.Bund



[Intro]
   F           C           E           Am
e|------------------------------------------------|
B|------------------------------------------------|
G|------2-----------0-----------1-----------1-----|
D|----3---3-------2---2-------2---2-------2---2---|
A|----------3--3--------3-----------2--0--------2-|
E|-1-----------------------0----------------------|

   (wie Intro)
          F            C     E           Am
   Lass' uns die Wolke vier,   bitte nie mehr verlassen
         F            C       E         Am
   Weil wir auf Wolke sieben,   viel zu viel verpassen
        F              C    E            Am
   Ich war da schon einmal,   und bin zu tief gefall'n

   (1 x anschlagen)
   F            C              E            Am
   Lieber Wolke 4 mit Dir, als unten wieder ganz allein'


Interlude: F, C, E, Am
e|--------------------------------|
B|--------------------------------|
G|-3-2----0-2-0--------3-2----0-2-|
D|--------------3-2-0-------------| 
A|--------------------------------|
E|--------------------------------|


F        C        E          Am
Ziemlich gut, wie wir das so gemeistert haben
F           C           E            Am
Wie wir die großen Tage unter kleinen Ding'n begraben
F      C            E            Am
Der Moment, der die Wirklichkeit maskiert
   F              C                E               Am
Es tut nur gut zu wissen, dass das wirklich funktioniert


          F            C     E           Am
   Lass' uns die Wolke vier,   bitte nie mehr verlassen
         F            C       E         Am
   Weil wir auf Wolke sieben,   viel zu viel verpassen
        F              C    E            Am
   Ich war da schon einmal,   und bin zu tief gefall'n

   (1 x anschlagen)
   F            C              E            Am
   Lieber Wolke 4 mit Dir, als unten wieder ganz allein'


Interlude: F, C, E, Am
e|--------------------------------|
B|--------------------------------|
G|-3-2----0-2-0--------3-2----0-2-|
D|--------------3-2-0-------------| 
A|--------------------------------|
E|--------------------------------|

F             C         E                  Am
Hab' nicht geseh'n, was da vielleicht noch kommt,
       F               C     E                 Am
Was am Ende dann mein Leben  und mein kleines Herz zerbombt
F          C             E            Am
Denn der Moment ist das, was ist und zeigt
        F             C            E                 Am
Bis die Tage ziemlich dunkel sind, doch dein Lächeln bleibt,

(1 x anschlagen)
  F             C            E                 Am
.................., ........ doch Dein Lächeln bleibt


          F            C     E           Am
   Lass' uns die Wolke vier,   bitte nie mehr verlassen
         F            C       E         Am
   Weil wir auf Wolke sieben,   viel zu viel verpassen
        F              C    E            Am
   Ich war da schon einmal,   und bin zu tief gefall'n
   F            C              E            Am
   Lieber Wolke 4 mit Dir, als unten wieder ganz allein'
   (1 x anschlagen)
   F            C              E            Am
   Lieber Wolke 4 mit Dir, als unten wieder ganz allein'


Interlude: F, C, E, Am
e|--------------------------------|
B|--------------------------------|
G|-3-2----0-2-0--------3-2----0-2-|
D|--------------3-2-0-------------| 
A|--------------------------------|
E|--------------------------------|


          F            C     E           Am
   Lass' uns die Wolke vier,   bitte nie mehr verlassen
         F            C       E         Am
   Weil wir auf Wolke sieben,   viel zu viel verpassen
        F              C    E            Am
   Ich war da schon einmal,   und bin zu tief gefall'n

   (1 x anschlagen)
   F            C              E            Am
   Lieber Wolke 4 mit Dir, als unten wieder ganz allein'

Добавлено: 07.12.2015
Другие материалы по этой песне:
  • Аккорды и текст

Страница создана 07.12.2015
http://primanota.ru/philipp-dittberner/wolke-4-live-chords.htm
Привет, Гость.
Предлагаем пройти революционный курс по гитаре.
Подарок от PrimaNota.Ru, забирай!