PrimaNota.ru - самый крупный в мире бесплатный архив песенных текстов, аккордов, табулатур и нот


Philipp Dittberner - In Deiner Kleinen Welt - аккорды и текст, видео

Регистрация Запомнить меня
Войти через:  Facebook Google Twitter Vk Yandex Mail.ru

Philipp Dittberner - In Deiner Kleinen Welt - аккорды и текст, видео

Печатать
Просмотров: 525
In Deiner Kleinen Welt
Philipp Dittberner
In deiner kleinen Welt - Philipp Dittberner

### tabbed by Felix Thalmann ###

[Intro]
   Fm            G#            Cm              C#
e|-8------8------8------8------11------11----------------11-------|
B|----9------9------9------9-------8-------8--------9--------9----|
G|------8------8------8------8-------8-------8-8h10---10-------10-|
D|----------------------------------------------------------------|
A|----------------------------------------------------------------|
E|----------------------------------------------------------------|

   Fm            G#            Cm              C#              C#m
e|-8------8------8------8------11------11------9-------9-------9------9------|
B|----9------9------9------9-------8-------8------9-------9-------9------9---|
G|------8------8------8------8-------8-------8------10------10------9------9-|
D|---------------------------------------------------------------------------|
A|---------------------------------------------------------------------------|
E|---------------------------------------------------------------------------|

[Verse 1]
   Fm            G#            Cm            C#
e|-4------4------4------4------6------6------4------4------|
B|----4------4------4------4------4------4------6------6---|
G|------5------5------5------5------5------5------6------6-|
D|---------------------------------------------------------|
A|---------------------------------------------------------|
E|---------------------------------------------------------|

[Verse 1]
    Fm                              G# 
Ich kenn dich zur Hälfte. Nein, ich kenn dich drei viertel.
     Cm                           C#
Doch eigentlich kenn ich dich überhaupt nicht.
    Fm                       G#                                           
Ich schreibe große Zeilen in klitzekleine Lieder
    Cm                          C#
und sing' sie dann heimlich für dich.
   Fm                          G#
Du lachst und du weinst und du bist so wie du bist,
    Cm              C#
ein rudimentäres Unikat.
           Fm                          G#
Vielleicht hab ich einmal Glück und es ist so wie es ist.
     Cm                         C#     C#m
Es gewinnt der, der alte Träume wahrt.

[Chorus]
       G#                            Cm
Und du drehst dich in deiner kleinen Welt, 
                  Fm              C# 
mit deinen großen Farben, wie sie dir gefällt.
                      G#                      Cm
Ob trist, ob manchmal grau, ob blau und wunderschön.
                     Fm                      C#     C#m 
Oh, ich würd mich so gerne in deinen Welten dreh'n.

[Verse 2]
    Fm                          G#
Ich schau dir hinterher und ich schau dir wieder zu.
    Cm                                C#
Ich sehe, dass du lachst und das bist du.
    Fm                        G#
Ich lauf auf deinen Wegen und tanze g'rad synchron
        Cm                             C#        C#m
mit der Hoffnung in der Hand in deinen Fußspur'n.

[Chorus] x2

[Bridge]
    Cm                       Fm
Ich hab eine Idee: Ich bleib einfach zu Besuch.
    C#               C#m         G#
Mal schau'n, was die Zeit uns so erzählt
           Cm                        Fm                  
Vielleicht lächelt sie ein' Tag oder gleich ein ganzes Jahr
    C#             C#m             G#
Für immer hier und jetzt in deiner Welt
    C#             C#m             G#
Für immer hier und jetzt in deiner Welt

[Chorus]

[Outro]
       G#       Cm
Und du drehst dich
       Fm       C#
Und du drehst dich
                 G#
In deiner kleinen
                 Cm
In deiner kleinen
                 Fm    C#
In deiner kleinen
                 C#m  G#
In deiner kleinen ... Welt
Добавлено: 06.08.2014
Другие материалы по этой песне:
  • Аккорды и текст

Страница создана 06.08.2014
http://primanota.ru/philipp-dittberner/in-deiner-kleinen-welt-chords.htm
Привет, Гость.
Предлагаем пройти революционный курс по гитаре.
Подарок от PrimaNota.Ru, забирай!