PrimaNota.ru - самый крупный в мире бесплатный архив песенных текстов, аккордов, табулатур и нот


Philip Sayce - Morning Star - таба, видео

Регистрация Запомнить меня
Войти через:  Facebook Google Twitter Vk Yandex Mail.ru

Philip Sayce - Morning Star - таба, видео

Печатать
Просмотров: 97
-------------------------------------------------------------------------------
                             Morning Star - Philip Sayce Group
-------------------------------------------------------------------------------
Tabbed by: 
E-mail: 

Tuning: Half-Step down

e|---------------------------------------------------------------------------|
B|---------------------------------------------------------------------------|
G|-----------------------7---------------------------------------------------|
D|--------------9p7------7---9p7---7-9-7------------6-6---2---7-7------------|
A|-----9-9----------9------------9-------9-7-5------6-6---2---5-5---7-8------|
E|-----7-7------------------------------------------x-x---0---------5-6------|

e|---------------------------------------------------------------------------|
B|-----------------------7-------9-7---9-7-----------------------------------|
G|-----------------------7-------9-7---9-7-----------------------------------|
D|--------------9p7----------7h9-----9-------9-7-9--7-7---2---7-7------------|
A|-----9-9----------9-------------------------------7-7---2---5-5---7-8------|
E|-----7-7------------------------------------------x-x---0---------5-6------|

Verse:

e|-----------|
B|-7-7---7-7-|
G|-7-7---7-7-|
D|-7-7---7-7-|
A|-----------|
E|-7-7---7-7-|
(Might be a different voicing around the 2nd-4th frets)

************************************

| /   slide up
| \   slide down
| h   hammer-on
| p   pull-off
| ~   vibrato
| +   harmonic
| x   Mute note
| b   Bend
| pb  Pre-bend
| br  Bend release
| pbr Pre-bend release
| brb Bend release bend

************************************
Добавлено: 07.06.2016
Другие материалы по этой песне:

Страница создана 07.06.2016
http://primanota.ru/philip-sayce/morning-star-chords.htm
Привет, Гость.
Предлагаем пройти революционный курс по гитаре.
Подарок от PrimaNota.Ru, забирай!