PrimaNota.ru - самый крупный в мире бесплатный архив песенных текстов, аккордов, табулатур и нот


Philip Paul Bliss - Wonderful Words Of Life - таба, видео

Регистрация Запомнить меня
Войти через:  Facebook Google Twitter Vk Yandex Mail.ru

Philip Paul Bliss - Wonderful Words Of Life - таба, видео

Печатать
Просмотров: 79
-------------------------------------------------------------------------------
                      wonderful words of life - philip bliss
-------------------------------------------------------------------------------
Tabbed by:
E-mail:
key of F
Tuning:E-A-D-G-B-e

e|---------------------------------------------------------------------------|
B|---------------------------------------------------------------------------|
G|-2-----2--2-3--2--2---0--0----0--0-----2----0-------2---2---2---3---2------|
D|------------0----------------------------------3----------------0----------|
A|-3-----3--3----3--3---1--1--3-1--1-----3----1--0-3--3---3---3-------3------|
E|-------------------------------------------------5-------------------------|
  sing them over again to me wonderful words of life let me more of their 
e|---------------------------------------------------------------------------|
B|--------------------------------------------------1---3--1-------------1---|
G|-2--0---0------0--0----2----0--------2----2---2---2---3--2----2----2---2---|
D|--------------------------------3-3--3----3---3---------------3----3-------|
A|-3--1---1---3--1--1----3----1---0-0----------------------------------------|
E|---------------------------------------------------------------------------|
  beauty see wonderful words of life words of life and beauty teach me faith
e|---------------------------------------------------------------------------|
B|-3---1---------------------------------------------------------------------|
G|-3---2---------------------------------------------------------------------|
D|---------------------------------------------------------------------------|
A|---------------------------------------------------------------------------|
E|---------------------------------------------------------------------------|
  and duty 
e|-----------------------------------------------------------------------------|
B|-------1-----------------------------------------------------1-1-------------|
G|-------2--3---3---3----3--2--2----2-----2--0------0--------2---2-3--3-----3--|
D|----------5---5---5----5--3--3----3-----3----3---------2-3---3---5--5-----5--|
A|-------------------------------------------3-3----3----3-3-------------------|
E|-----------------------------------------------------------------------------|
chorus: beautiful words wonderful words wonderful words of life beautiful words
e|---------------------------------------------------------------------------|
B|---------------------------------------------------------------------------|
G|-3--2--3----2---2----------------------------------------------------------|
D|-5--3--3----3---3---3------------------------------------------------------|
A|--------------------3------------------------------------------------------|
E|---------------------------------------------------------------------------|
  wonderful words of life


************************************

| /   slide up
| \   slide down
| h   hammer-on
| p   pull-off
| ~   vibrato
| +   harmonic
| x   Mute note
| b   Bend
| pb  Pre-bend
| br  Bend release
| pbr Pre-bend release
| brb Bend release bend

************************************
Добавлено: 25.06.2016
Другие материалы по этой песне:
  • Аккорды и текст

Страница создана 25.06.2016
http://primanota.ru/philip-paul-bliss/wonderful-words-of-life-chords.htm
Привет, Гость.
Предлагаем пройти революционный курс по гитаре.
Подарок от PrimaNota.Ru, забирай!