PrimaNota.ru - самый крупный в мире бесплатный архив песенных текстов, аккордов, табулатур и нот


Philip H Anselmo And The Illegals - Ugly Mug - таба, видео

Регистрация Запомнить меня
Войти через:  Facebook Google Twitter Vk Yandex Mail.ru

Philip H Anselmo And The Illegals - Ugly Mug - таба, видео

Печатать
Просмотров: 53
/=slide

d#|-------------|----------|----------|----------|----------|---------|
A#|-------------|----------|----------|----------|----------|---------|
F#|4:------5----|-----5----|-----5----|-----5----|-----0----|-----0---|
C#|4:-----7---7-|----7---7-|----7---7-|----7---7-|----5---5-|----5--5-|
G#|---/5--------|-5--------|-5--------|-5--------|-3--------|-3-------|
C#|-------------|----------|----------|----------|----------|---------|

                    Repeat 4x

d#|-------------|----------||
A#|-------------|---------.||
F#|4:------0----|-----0----||
C#|4:-----5---5-|----5---5-||
G#|----3--------|-3-------.||
C#|-------------|----------||

W/heavy distortion | Repeat 4x |           Repeat 24x

d#||----------|---------||-----------------||
A#||.---------|--------.||.---------------.||
F#||-3:-----5-|-----5---||---9--9--9-1010--||
C#||-4:---7---|---7-----||-----------------||
G#||.---5-----|-5------.||.--7--7--7-8-8--.||
C#||----------|---------||-----------------||

d#|---------------------|--------------------||-----------------------|
A#|---------------------|-------------------.||.----------------------|
F#|3:-------------------|--------------------||-----12121212-10101010-|
C#|4:-----7777-10101010-|------7777-10101010-||-0000------------------|
G#|---0000--------------|-00000-------------.||.----------------------|
C#|---------------------|--------------------||-----------------------|              
(10th fret not 1-0-1-0)                       (10th and 12th fret)


d#|-------------------------||----------------|---------------|---------------|
A#|------------------------.||.---------------|---------------|---------------|
F#|3:-----12121212-10101010-||----------------|---------------|---------------|
C#|4:-0000------------------||----------------|---------------|---------------|
G#|------------------------.||.-----0000-3333-|-----0000-3333-|-----0000-3333-|
C#|-------------------------||--0000----------|-0000----------|-0000----------|

            Repeat 6x           Repeat 4x

d#|-----------------||--------|--------||--------------------|--------------|
A#|----------------,||.-------|-------.||.-------------------|--------------|
F#|3:---------------||------5-|-----5--||--------------------|--------------|
C#|4:---------------||----7---|---7----||------5555-10101010-|-----5555-----|
G#|----3---3-5---3-.||.-5-----|-5-----.||.-0000--------------|-0000---------|
C#|-----------------||--------|--------||--------------------|--------------|

d#|-------------||------------------------|-----------------------||---|
A#|------------.||.-----------------------|----------------------.||.--|
F#|3:-----------||------12121212-10101010-|-----12121212-10101010-||---|
C#|4:-10101010--||--0000------------------|-0000------------------||---|
G#|------------.||.-----------------------|----------------------.||.--|
C#|-------------||------------------------|-----------------------||---|

                                                    Repeat until end

d#|----------------|---------------|---------------|--------------||
A#|----------------|---------------|---------------|-------------.||
F#|3:--------------|---------------|---------------|--------------||
C#|4:--------------|---------------|---------------|--------------||
G#|------0000-3333-|-----0000-3333-|-----0000-3333-|-3---3-5---3-.||
C#|--0000----------|-0000----------|-0000----------|--------------||
Добавлено: 26.07.2015
Другие материалы по этой песне:
  • Аккорды и текст

Страница создана 26.07.2015
http://primanota.ru/philip-h-anselmo-and-illegals/ugly-mug-chords.htm
Привет, Гость.
Предлагаем пройти революционный курс по гитаре.
Подарок от PrimaNota.Ru, забирай!