PrimaNota.ru - самый крупный в мире бесплатный архив песенных текстов, аккордов, табулатур и нот


Philip George - Wish You Were Mine - таба, видео

Регистрация Запомнить меня
Войти через:  Facebook Google Twitter Vk Yandex Mail.ru

Philip George - Wish You Were Mine - таба, видео

Печатать
Просмотров: 121
Авторы: Stevie Wonder, Henry Cosby, Sylvia Moy

-------------------------------------------------------------------------------
                             WISH YOU WERE MINE - Philip George
-------------------------------------------------------------------------------
Tabbed by: Peter Arens
E-mail: peter.arens@icloud.com

Tuning: Standard

Basic Repeating Pattern:

e|--------------------------------|--------------------------------|
B|--------------------------------|--------------------------------|
G|----------------7-----7-----7---|--------------------------------|
D|--------------------------------|7-----7-----8-----8-----8-------|
A|5-----5-----5-------------------|--------------------------------|
E|--------------------------------|--------------------------------|

e|--------------------------------|--------------------------------|
B|--------------------------------|--------------------------------|
G|----------------------------7---|------------5-----5-----5-------|
D|5-----5-----5-----5-----5-------|8-----8-------------------------|
A|--------------------------------|--------------------------------|
E|--------------------------------|--------------------------------|

Please enjoy this perfect groove!
Добавлено: 05.12.2015
Другие материалы по этой песне:
  • Аккорды и текст

Страница создана 05.12.2015
http://primanota.ru/philip-george/wish-you-were-mine-chords.htm
Привет, Гость.
Предлагаем пройти революционный курс по гитаре.
Подарок от PrimaNota.Ru, забирай!