PrimaNota.ru - самый крупный в мире бесплатный архив песенных текстов, аккордов, табулатур и нот


Phil Situmorang - Nu Metal Guitar Riffs - таба, видео

Регистрация Запомнить меня
Войти через:  Facebook Google Twitter Vk Yandex Mail.ru

Phil Situmorang - Nu Metal Guitar Riffs - таба, видео

Печатать
Просмотров: 85
(riff 1) - repeat 2x
D|--------------------------------------------------------------------------|
A|--------------------------------------------------------------------------|
F|--------------------------------------------------------------------------|
C|--------------------------------------------------------------------------|
G|---------5-5-5-5-5-5-5-5-5-5-5-5------------------------------------------|
C|-0-0-0-0-------------------------0-0-1-0-2-0-0-1-0-0-1-0-2-0-1-2----------|

D|--------------------------------------------------------------------------|
A|--------------------------------------------------------------------------|
F|--------------------------------------------------------------------------|
C|--------------------------------------------------------------------------|
G|---------5-5-5-5-5-5-5-5-5-5-5-5-----2-2-------------1-1------------------|
C|-0-0-0-0-------------------------0-0-----3-3-0-0-0-0-----2-2-0-0-0-0------|

(riff 2) - repeat 3x
D|--------------------------------------------------------------------------|
A|--------------------------------------------------------------------------|
F|--------------------------------------------------------------------------|
C|--------------------------------------------------------------------------|
G|-------------------------------3-------------------------------2----------|
C|-0-0-1-0-2-0-0-1-0-0-1-0-0-1-2---0-0-1-0-2-0-0-1-0-0-1-0-0-1-2------------|

D|--------------------------------------------------------------------------|
A|--------------------------------------------------------------------------|
F|--------------------------------------------------------------------------|
C|--------------------------------------------------------------------------|
G|-------------------------------3------------------------------------------|
C|-0-0-1-0-2-0-0-1-0-0-1-0-0-1-2---0-0-1-0-2-0-0-1-0-0-1-2-3-2-1-0----------|

(transition)
D|--------------------------------------------------------------------------|
A|--------------------------------------------------------------------------|
F|--------------------------------------------------------------------------|
C|-0---3---4----------------------------------------------------------------|
G|-0---3---4----------------------------------------------------------------|
C|-0---3---4----------------------------------------------------------------|

(riff 3) - repeat 2x
D|-------------------------------------------------------------------|
A|-------------------------------------------------------------------|
F|-------------------------------------------------------------------|
C|-------------------------------------------------------------------|
G|-----5-5-5-------6-6-----3-3---------5-5-5-----8-8-----6-6---------|
C|-0-0-------0-0-0-----0-0-----0-0-0-0-------0-0-----0-0-----0-0-0-0-|

--------------------------------------------------------|
--------------------------------------------------------|
--------------------------------------------------------|
-----------------------------------------------6-5-3----|
5-5-5-----6-6-----3-3---------5-5-5------------6-5-3----|
------0-0-----0-0-----0-0-0-0--------0-0-0-0-0-6-5-3----|

(riff 1) - repeat 2x
D|--------------------------------------------------------------------------|
A|--------------------------------------------------------------------------|
F|--------------------------------------------------------------------------|
C|--------------------------------------------------------------------------|
G|---------5-5-5-5-5-5-5-5-5-5-5-5------------------------------------------|
C|-0-0-0-0-------------------------0-0-1-0-2-0-0-1-0-0-1-0-2-0-1-2----------|

D|--------------------------------------------------------------------------|
A|--------------------------------------------------------------------------|
F|--------------------------------------------------------------------------|
C|--------------------------------------------------------------------------|
G|---------5-5-5-5-5-5-5-5-5-5-5-5-----2-2-------------1-1------------------|
C|-0-0-0-0-------------------------0-0-----3-3-0-0-0-0-----2-2-0-0-0-0------|

(riff 4) - repeat 4x
D|--------------------------------------------------------------------------|
A|--------------------------------------------------------------------------|
F|--------------------------------------------------------------------------|
C|-1-0-0-0-1-0-0-0-1-0-0-0-1-0-0-0-1-0-0-0-1-0-0-0-1-0-0-0-3-2-1------------|
G|-1-0-0-0-1-0-0-0-1-0-0-0-1-0-0-0-1-0-0-0-1-0-0-0-1-0-0-0-3-2-1------------|
C|-1-0-0-0-1-0-0-0-1-0-0-0-1-0-0-0-1-0-0-0-1-0-0-0-1-0-0-0-3-2-1------------|

(riff 2) - repeat 1x
D|--------------------------------------------------------------------------|
A|--------------------------------------------------------------------------|
F|--------------------------------------------------------------------------|
C|--------------------------------------------------------------------------|
G|-------------------------------3-------------------------------2----------|
C|-0-0-1-0-2-0-0-1-0-0-1-0-0-1-2---0-0-1-0-2-0-0-1-0-0-1-0-0-1-2------------|

D|--------------------------------------------------------------------------|
A|--------------------------------------------------------------------------|
F|--------------------------------------------------------------------------|
C|--------------------------------------------------------------------------|
G|-------------------------------3------------------------------------------|
C|-0-0-1-0-2-0-0-1-0-0-1-0-0-1-2---0-0-1-0-2-0-0-1-0-0-1-2-3-2-1-0----------|

(riff 4-end) - repeat 1x
D|--------------------------------------------------------------------------|
A|--------------------------------------------------------------------------|
F|--------------------------------------------------------------------------|
C|-1-0-0-0-1-0-0-0-1-0-0-0-1-0-0-0-1-0-0-0-1-0-0-0-1------------------------|
G|-1-0-0-0-1-0-0-0-1-0-0-0-1-0-0-0-1-0-0-0-1-0-0-0-1------------------------|
C|-1-0-0-0-1-0-0-0-1-0-0-0-1-0-0-0-1-0-0-0-1-0-0-0-1------------------------|
Добавлено: 21.12.2015
Другие материалы по этой песне:
  • Аккорды и текст

Страница создана 21.12.2015
http://primanota.ru/phil-situmorang/nu-metal-guitar-riffs-chords.htm
Привет, Гость.
Предлагаем пройти революционный курс по гитаре.
Подарок от PrimaNota.Ru, забирай!