PrimaNota.ru - самый крупный в мире бесплатный архив песенных текстов, аккордов, табулатур и нот


Phil Lynott - Talk In 79 - бас-таба, видео

Регистрация Запомнить меня
Войти через:  Facebook Google Twitter Vk Yandex Mail.ru

Phil Lynott - Talk In 79 - бас-таба, видео

Печатать
Просмотров: 58
Авторы музыки: Phil Lynott
Авторы текста: Phil Lynott
----------------5-----------------7h9--|
---------------------------------------|
------22-3-3-------------22------------|
-3333---------------3333----0-0--------|

---------------------------------------|
---------------------------------------|
------22-3-3-------------22------------|
-3333---------------3333----0-00--3\---|

---------------------------------------|
---------------------------------------|
------22-3-3-------------22------------|
-3333---------8\----3333----0-00--3\---|

----------------5----------------------|
---------------------------------------|
------22-3-3-------------22------------|
-3333---------------3333----0-00--3\---|

------------------5------------------9-|
-2222-44-0-0~------2222-44-2-----------|
---------------------------------------|
-------------------------------0~------|

------------------5--------------------|
-2222-44-0-0~------2222-44-2-----------|
-----------------------------------3-2-|
-------------------------------0~------|

--------------------------------999---|
--------------------------------------|
------22-3-3-------------22--------7--|
-3333---------------3333----0-0-------|

-------------------------------------|
------------2-2----------------------|
------22-3-3---3--------22-----------|
-3333---------------3333----0-00-----|

-------------------------------------|
-------------------------------------|
------22-3-3-------------22----------|
-3333---------------3333----0-0------|

-------------------------------------|
-------------------------------------|
------22-3-3-------------22----------|
-3333---------------3333----0-00~----|

------------------5------------------9-|
-2222-44-0-0~------2222-44-2-----------|
---------------------------------------|
-------------------------------0~------|

------------------5--------------------|
-2222-44-0-0~------2222-44-2-----------|
-----------------------------------3-2-|
-------------------------------0~------|

-------------------------------------|
-------------------------------------|
------22-3---------------22----------|
-3333-----------8\--3333----0--------|

----------------5--------------------|
-------------------------------------|
------22-3---------------22----------|
-3333---------------3333----0-0------|

---------------------------------7h9-|
----------------2223-----------------|
------22-3-3--------3----------------|
-3333-----------------------0-0------|

-------------------------------------|
-------------------------------------|
------22-3---------------22----------|
-3333-----------8\--3333----0-0------|

------------------5------------------9--|
-2222-44-0-0~------2222-44-2------------|
----------------------------------------|
-------------------------------0~-------|

------------------5--------------------|
-2222-44-0-0~------2222-44-2-----------|
-----------------------------------3-2-|
-------------------------------0~------|

-----
-----
-----
-3-0-

-----------------------------|
-----------------------------|
77777-------5577777-------55-|
-----0000000-------0000000---|

-----------------------------|
-----------------------------|
77777-------5577777-------55-|
-----0000000-------0000000---|

9--------------|
---------------|
-7777-------55-|
-----0000000---|

*------------------------------|
 ------------------------------|
 77777-------5577777-------55--|
 -----0000000-------0000000----| (until the end of the song)
Добавлено: 04.09.2013
Другие материалы по этой песне:
  • Аккорды и текст

Страница создана 04.09.2013
http://primanota.ru/phil-lynott/talk-in-79-chords.htm
Привет, Гость.
Предлагаем пройти революционный курс по гитаре.
Подарок от PrimaNota.Ru, забирай!