PrimaNota.ru - самый крупный в мире бесплатный архив песенных текстов, аккордов, табулатур и нот


Phil Lynott - Parisienne Walkways - таба, видео

Регистрация Запомнить меня
Войти через:  Facebook Google Twitter Vk Yandex Mail.ru

Phil Lynott - Parisienne Walkways - таба, видео

Печатать
Просмотров: 113
Авторы: Phil Lynott, Gary Moore

Parisienne Walkways by Phil Lynott and Gary Moore

This is the Sungha Jung version as seen on youtube.  I have taken a few liberties of my 
so it's not perfect, but it is close and it sounds great.  Have fun with it!

Tabbed by D. Perkins       p = pull off    \ = slide  ( )= optional

Tuning: Standard, EADGBE.       ~ = hold and vibrate
Capo: 3rd Fret


E|---------------------------|
B|---------------------------|
G|---------------------------|
D|---------------------------|
A|-----7\--------------------|
E|------------7\------3\-----|

E|-5\7---------5--3---2--------|-------------3\7--5------------|
B|---------0------------5-3-0--|--1-----1----------------5---5-|
G|-------0---0------0----------|------2----------------5---5---|
D|-----------------------------|----2-----2----------7---------|
A|-----7-----------------------|--0---------------0------------|
E|--\0------------0------------|-------------------------------|

E|--5-------5--3----2----------|-------------3\5--3------------|
B|------3----------------5-3-0-|--0------0---------------------|
G|----0---0--0---0----0--------|-------0---0------------0---0--|
D|--0----------0----0----------|-----0----------------0---0----|
A|-----------------------------|--------------------2----------|
E|-----------------------------|--3---------------3------------|

E|--3---------2--0--------------|------------3--2-------------|
B|------------------3---1---0---|-----------------------------|
G|------0—-(0)------------------|--2-----2-------------2------|
D|----2---2---2-------2---2---2-|------2---2---------2---2----|
A|--3------------3--3---3-------|----3-------3-----3-------3--|
E|------------------------------|--2------------2-------------|


E|--2-------3-2-0---------------|----------------------------|
B|------0-----------4---1-0--0--|----------------------------|
G|----2---2-------2---2------0--|----------------------------|
D|---------------------------0--|----------------------------|
A|--2-----------2---2-----------|----7\----------------------|
E|---------------------------0--|------------7\-------3\-----|




E|-----------0-0-0---0-0-----|--------0------------------|
B|--------0--------0-----3---|----------3-1-1-------1----|
G|------0------------------0-|------2---------2—--2---2--|
D|----2----------------------|----2-------------2--------|
A|---------------------------|--0-----------0------------|
E|--0------------0-----0-----|---------------------------|

E|--------------0------------|---------------------------|
B|--------3-------3---3------|------3-3-1p0---0----------|
G|------2---2-------2---2----|------0-0-----0-------0----|
D|----0-------0-0---------0--|----0---------------0---0--|
A|--0-----------------0------|------------------2------2-|
E|---------------------------|--3-------------3----------|

E|---------------------------|---------------------------|
B|--------1-----1p0-----1----|---------------------0-----|
G|------0---0-------2p0----0-|--2-----2----------2---0\1-|
D|----2-------2-----------2--|----4-----2------1---------|
A|--3-----------3-------3----|------2-----3--2-----------|
E|---------------------------|--2------------------------|


E|---------------------------|--0--|
B|----0-0--------------------|--0--|
G|--1-----1-----------2------|--1--|
D|----------2-------2---2----|--2--|
A|--2---------2---4-------2--|--2--|
E|--------------0------------|--0--|

E|--4~------5-7~-----9\10~---|--10-----------10-10-------------|
B|---------------------------|----------10-------------5-------|
G|---------------------------|--------9----9---------5---5-----|
D|---------------------------|-----10--------------7-------7-0-|
A|---------------------------|---0------------0--5-------------|
E|---------------------------|---------------------------------|

E|----------------5-—-7\8--8-|--8----------7-7-----------|
B|--------7---8-----------0--|------0-0----------0-0-----|
G|------7---7---7----7-------|----0-----0------0-----0---|
D|----0-----------0----------|--0---------0--0---------0-|
A|--0------------------------|---------------------------|
E|---------------------------|---------------------------|


E|--------0---2-3-----/7-----|--7---------5-5----------|
B|-------(0)---------------0-|------5--5------5---5—-0-|
G|------0---0-------0----0---|----5---5---------5---5--|
D|----2-----------2----------|--4---------4-4----------|
A|--3-----------3------------|-------------------------|
E|---------------------------|-------------------------|

E|--------------2----5-5--|-5--------3p2-0----------------------------|
B|--------4---5-----------|-------0-------3h5p3-0-----0---------------|
G|------2----------2------|-----0---0------------0h2h3-0--------------|
D|----4-----4----4--------|---2--------------------------2-0----------|
A|--2---------------------|----------------------------------2-0------|
E|------------------------|-0------------------------------------3\0-0|


E|----------------------|
B|--------0----0-0-3--3-|
G|--1---2---------------|
D|----------------------|
A|----------------------|
E|----------------------|


E|--------------------------|--------------0----------|
B|--3---------1-1h3-0-------|--------3---3------3-----|
G|------2---2------0--2---2-|------2---2------2---2---|
D|----2---2-------------2---|----0----------0-------0-|
A|--0-----------0-----------|--0----------------------|
E|--------------------------|-------------------------|


E|--------------------------|--------------------------|
B|--3-----1---3-0-----------|--------1-----------0-----|
G|------0---0---------0---0-|------0---0-------0---0---|
D|----0-------------0---0---|----2-------2---2-------2-|
A|----------------2---------|--3-----------3-----------|
E|--3-----------3-----------|--------------------------|


E|--------------------------|--------------------------|
B|--------------------------|--------------------------|
G|--2-----2---2-------2-----|--3-----------------3-----|
D|------2---2-------2---2---|------2---4-4-4---4---4---|
A|----3-----------3-------3-|----4---4-------4-------4-|
E|--2-----------2-----------|--2-----------2-----------|

E|--------------------------|--2--|
B|--------------------------|--2--|
G|--------------------------|--3--|
D|--4---4---4---5---5---5---|--4--|
A|----0---0-------3---3-----|--4--|
E|--2---------2-3---------3-|--2--|


E|--5\7~~~~~5-3~~~~2-0------|-------------3\7--5-----5h7p5-------|
B|---------------------3-0--|--1-----1---------------------5---5-|
G|--------------------------|------2----------------5--------5---|
D|--------------------------|----2-----2----------7--------------|
A|--------------------------|--0---------------0-----------------|
E|--------------------------|------------------------------------|

E|--5-------5--3----2----------|------------3\5--3----3\5-3-----------|
B|------3----------------5-3-0-|--0-----0-----------------------------|
G|----0---0--0---0----0--------|------0---0---------------------0---0-|
D|--0----------0----0----------|----0----------------0--------0---0---|
A|-----------------------------|-------------------2--------2---------|
E|-----------------------------|--3--------------3--------3-----------|

E|--3---------2--0--------------|------------3--2-------------|
B|------------------3---1---0---|---------------------------4-|
G|------0—-(0)------------------|--2------------------2---2---|
D|----2---2---2-------2---2---2-|------2---2--------4---4-----|
A|--3------------3--3---3-------|----3---3---3----2-----------|
E|------------------------------|--2------------2-------------|


E|--0------------------------|---------------------------0-2---|
B|--------0-----------1------|--------0----------------3-----3-|
G|----------0-------0---0----|----------0-------0--------------|
D|------2-----2---2-------2--|------2-----2---2-----2----------|
A|----2---------0------------|----2---------3-----3------------|
E|--0------------------------|--0------------------------------|


E|--0------------------------|---------------------------0-2---|
B|--------0-----------1------|--------0----------------3-----3-|
G|----------0-------0---0----|----------0-------0--------------|
D|------2-----2---2-------2--|------2-----2---2-----2----------|
A|----2---------0------------|----2---------3-----3------------|
E|--0------------------------|--0------------------------------|


E|-------0--|
B|------0---|
G|-----0----|
D|----4-----|
A|---2------|
E|--0-------|
Добавлено: 01.07.2012
Другие материалы по этой песне:
  • Аккорды и текст

Страница создана 01.07.2012
http://primanota.ru/phil-lynott/parisienne-walkways-chords.htm
Привет, Гость.
Предлагаем пройти революционный курс по гитаре.
Подарок от PrimaNota.Ru, забирай!