PrimaNota.ru - самый крупный в мире бесплатный архив песенных текстов, аккордов, табулатур и нот


Phil Keaggy - Wedding In The Country Manor - таба, видео

Регистрация Запомнить меня
Войти через:  Facebook Google Twitter Vk Yandex Mail.ru

Phil Keaggy - Wedding In The Country Manor - таба, видео

Печатать
Просмотров: 67
-------------------------------------------

Wedding in the Country Manor by Phil Keaggy 

(from "The Master and the Musician" album)

-------------------------------------------

Enhanced from a tab by Peter Yang 

Thanks Peter for a great tab. I have added what I believe are the 
basic chordal ideas behind the harmony and some tab additions. 
I have had a go at improving this tab for a great piece of music 
by a great musician.
Russell (2012)russelltasker@gmail.com  

-------------------------------------------------------------

Standard tuning

Movement 1: Key A major

     A E A  E    A      E      A     E        A     E        A 

E-|-----------|-------------|--------------|--5-----7-----|--9-----|
B-|-----------|-------------|--------------|--------------|--------|
G-|-----------|-------------|--6-----9-----|--6-----9-----|--9-----|
D-|-----------|--7-----9----|--7-----9-----|--------------|--------|
A-|--4h7-4--7-|--7-----9----|--------------|--------------|--------|
E-|--5h7-5--7-|-------------|--------------|--------------|--------|
     2  .     1  .  2  .    1  .  2  .     1  .  2  .     1  .  2  .

     E             A              F#m   E             

E-|--7--9--7--9-|--5-----4--5--|--2-----0-----|-------------|
B-|-------------|--------------|--------------|--------0--2-|
G-|--9----------|--6-----------|--------------|-------------|
D-|-------------|--------------|--4-----2-----|-------------|
A-|-------------|--------------|--------------|-------------|
E-|-------------|--------------|--------------|-------------|
     1  .  2  .    1  .  2  .     1  .  2  .     1  .  2  .

    D/F#   E       D/F#  E/G#     A     

E-|-------------|--------------|--------------|--5----------|
B-|-------------|--------------|--------------|--5----------|
G-|--2-----1----|--------------|--------------|-------------|
D-|-------------|--4-----6-----|--7-----------|-------------|
A-|-------------|--------------|--7-----------|--------4--7-|
E-|--2-----0----|--2-----4-----|--5-----------|--------5--7-|
     1  .  2  .    1  .  2  .     1  .  2  .     1  .  2  .

     A     E       A     E        A     E        A 

E-|-------------|--------------|--5-----7-----|--9----------|
B-|-------------|--------------|--7-----9-----|--10---------|
G-|-------------|--6-----9-----|--------------|-------------|
D-|--7-----9----|--7-----9-----|--------------|-------------|
A-|--7-----9----|--------------|--------------|-------------|
E-|-------------|--------------|--------------|-------------|
     1  .  2  .    1  .  2  .     1  .  2  .     1  .  2  .

     D             A2             E             D

E-|--10---------|--------------|-------------|-------------|
B-|--10-14-12---|--14-12-10----|--12-10---10-|-------------|
G-|--11---------|--------------|--------13---|--11---------|
D-|--0----------|--------------|-------------|--0----------|
A-|-------------|--0-----------|-------------|-------------|
E-|-------------|--------------|--0----------|-------------|
     1  .  2  .    1  .  2  .     1  .  2  .     1  .  2  .

     D2         A/C#   D/F#  E   D/F#  E/G#    A

E-|--2-p0-------|--0--------------------------|----------|
B-|--------3----|-----0h2---------------------|----------|
G-|-----------2-|---------2----1--------------|----------|
D-|--0----------|-------------------4-----6---|--7-------|
A-|-------------|--4--------------------------|--7-------|
E-|-------------|---------2----0----2-----4---|--5-------|


           (Slow down to a tempo suitable for Movement 2)   

     A/C#  D/F#  E   D/F#  E/G#    A

E-|--0--------------------------|--5----------|
B-|-----0h2---------------------|--2----------|
G-|---------2----1--------------|--2----------|
D-|-------------------4-----6---|--2----------|
A-|--4--------------------------|--0----------|
E-|---------2----0----2-----4---|-------------|


Movement 2

     A                        Bm

E-|-------------------------|-----------------------|
B-|------------0h2p0--------|----------2h3p2--------|
G-|-------2--------------2--|------4---------4------|
D-|-----2-------------------|----4------------------|
A-|--0----------------------|--2--------------------|
E-|-------------------------|-----------------------|
     1  .  2  .  3  .  4  .     1  .  2  .  3  .  4  .

     F#m                                                  E

E-|-----2--------------------|--------------------------|
B-|--------5--3--2-----------|--2-----------------------|
G-|-----------------4--2--4--|--------------1h2p1----1--|
D-|--4-----------------------|--------4-----------4-----|
A-|--4-----------------------|--------------------------|
E-|--2-----------------------|--------------0-----------|
     1  .  2  .  3  .  4  .     1  .  2  .  3  .  4  .


     A                        Bm

E-|-------------------------|-----------------------|
B-|------------0h2p0--------|----------2h3p2--------|
G-|-------2--------------2--|------4---------4------|
D-|-----2-------------------|----4------------------|
A-|--0----------------------|--2--------------------|
E-|-------------------------|-----------------------|
     1  .  2  .  3  .  4  .     1  .  2  .  3  .  4  .

     F#m                                                  

E-|-----2--------------------|-------------|
B-|--------5--3--2-----------|--2----------|
G-|-----------------4--2--4--|-------------|
D-|--4-----------------------|--------4----|
A-|--4-----------------------|-------------|
E-|--2-----------------------|-------------|
     1  .  2  .  3  .  4  .     1  .  2  . 


Movement 3: moves from A major through cycle of 5ths and ends in G major

    Dmaj7      Amaj7       Cmaj7     Gmaj7      Fmaj7         Cmaj7    

E-|--------4p2----0h2----|------3-5-3--2---2-|----------8-------------|
B-|------2-------(2)--2--|-----0---------3---|-------10---10---8---8--|
G-|----2---------(1)-----|----0--------------|-----9-------------9----|
D-|---0----------(2)-----|---2---------------|---10-------------------|
A-|--0------------0------|--3----------------|--8---------------------|
E-|----------------------|-------------3-----|-----------------8------|


    Ebmaj7     G              G  Am7 G/B C        G     G Am7 G/B C

E-|--------6----------3---3-|------------3--0--------|------------3---|
B-|--8---8------------0---0-|--0--1--3---1-----1--3--|--0--1--3---1---|
G-|----7------------0-----0-|------------------------|----------------|
D-|---------------0-------0-|------------------------|----------------|
A-|--6----------2---------2-|-----0--2---3-----------|-----0--2---3---|
E-|------------3----------3-|--3------------------3--|--3-------------|


     C Dm7 C/E Eb       F   G       Dm7                  G       C     E

E-|--0--1---3--6--------5-|-7----------8s7p5-----------|--7------8-----7-|
B-|--1--1---0----4---4--6-|-8---------6------8--6p5----|--8------8--8--9-|
G-|----(2)---------3----5-|-7--------5---------------7-|--7--9---9-----9-|
D-|-----0---2-------------|---------7------------------|-----------------|
A-|--3--------------------|--------5-------------------|-----------------|
E-|-----------------------|----------------------------|-----------------|


Movement 4:  E major

     E

E-|--7-----7--7-----7--|--7-----7--7-----7--|
B-|-----5--------5-----|-----5--------5-----|
G-|--------------------|--------------------|
D-|--------------------|--------------------|
A-|--7--------7--------|--7--------7--------|
E-|--------------------|--------------------|
     1  2  3  4  5  6     1  2  3  4  5  6


E-|--7-----7--7-----7--|--7-----7--7-----7--|
B-|-----5--------5-----|-----5--------5-----|
G-|--------------------|--------------------|
D-|--------------------|--------------------|
A-|--7--------7--------|--7--------7--------|
E-|--------------------|--------------------|
     1  2  3  4  5  6     1  2  3  4  5  6

     E                    Aadd9    A6        

E-|--7-----7--7-----7--|--7----5---4--------|
B-|-----5--------5-----|--5--------0---7----|
G-|--------------------|-(6)----------------|
D-|-(6)----------------|--7--------7--------|
A-|--7--------7--------|--------------------|
E-|--------------------|--------------------|
     1  2  3  4  5  6     1  2  3  4  5  6

     B2       A           G       A2/F#

E-|--0-----------------|--------------------|
B-|--------4--2-----0--|--3-----2--0--------|
G-|--------------------|-----------------2--|
D-|--------------------|--------------------|
A-|--2--------0--------|--------------------|
E-|--------------------|--3--------2--------|
     1  2  3  4  5  6     1  2  3  4  5  6

     E

E-|--------------------|--------------------|
B-|--0-----------------|--------------------|
G-|--------------------|--------------------|
D-|-----------2-----2--|-----2-----2--------|
A-|--------2--2--2--2--|--2--2--2--2--------|
E-|--0-----------------|--------------------|
     1  2  3  4  5  6     1  2  3  4  5  6


When repeating the first time, use the following for 
the last 2 measures:

     E

E-|--------------------|----<12>-----<5>----|
B-|--0-----------------|----------<7>-------|
G-|--------------------|--------------------|
D-|-----------2-----2--|--------------------|
A-|--------2--2--2--2--|--------------------|
E-|--0-----------------|--------------------|
     1  2  3  4  5  6     1  2  3  4  5  6


Last Movement



Section I

     E        A           Badd9    E

E-|--------------------|--------------------|
B-|--------------------|--------------------|
G-|--------------6--9--|--8--6----------9---|
D-|-----6--9--7--------|--------9--6--9-----|
A-|--7-----------------|--------------------|
E-|--------------------|--------------------|
     1  2  3  4  5  6     1  2  3  4  5  6

              E          B        B7

E-|-----------7--------|--------------------|
B-|--7--9--10----9-----|--7-----------------|
G-|-----------------9--|-----8--------------|
D-|--------------------|--------9--7--------|
A-|--------------------|--------------9--6--|
E-|--------------------|--------------------|
     1  2  3  4  5  6     1  2  3  4  5  6


E-|-----------|
B-|-----------|
G-|-----------|
D-|-----------|
A-|--------6--|
E-|--7--9-----|
     1  2  3  

    E         A           Badd9    E

E-|--------------------|--------------------|
B-|--------------------|--------------------|
G-|--------------6--9--|--8--6-----9-----9--|
D-|--9--6--9--7--------|--------9--6--9-----|
A-|--7--------7--------|--9-----------------|
E-|--------------------|--------------------|
     1  2  3  4  5  6     1  2  3  4  5  6

              E           B7       E

E-|-----------7--------|-----------7--------|
B-|--7--9--10----9-----|--7-----------9-----|
G-|-----------------9--|-----8-----------9--|
D-|--7--------9--------|--7-----9--9--------|
A-|--------------------|--------------------|
E-|--------------------|--------------------|
     1  2  3  4  5  6     1  2  3  4  5  6


     B7       E           B7

E-|-----------7--------|--------------------|
B-|--7-----------9-----|--7-----------------|
G-|-----8-----------9--|-----8--------------|
D-|--7-----9--9--------|--7-----9-----------|
A-|--------------------|--------------------|
E-|--------------------|--------------------|
     1  2  3  4  5  6     1  2  3  4  5  6


PART 2.

Repeat PART 1 without palm muting.

Play fast, clean, and don't forget to tap the guitar
rhythmically at the same time (please, someone, tell me
that this is overdubbed...).


    B         E           B       B7
 
E-|-----------7--------|--------------------|
B-|--7-----------9-----|--7-----------------|
G-|-----8-----------9--|-----8--------------|
D-|--------9-----------|--------9--7--------|
A-|--------------------|--------------9--6--|
E-|--------------------|--------------------|
     1  2  3  4  5  6     1  2  3  4  5  6


E-|-----------|
B-|-----------|
G-|-----------|
D-|-----------|
A-|-----------|
E-|--7--------|
     1  2  3  

Final movement:

     E           Amaj7  B7        E          Amaj7  B7

E-|--4p2p0-----------4-----2--|--4p2p0-----------4-----2--|
B-|--------4p2p0--2-----4-----|--------4p2p0--2-----4-----| 
G-|---------------2-----------|---------------2-----------|
D-|---------------------------|---------------------------|
A-|---------------0-----2-----|---------------0-----2-----|
E-|--0------------------------|--0------------------------|
     

     E            A        E  B  E  

E-|--4p2p0----------------------------0--||
B-|--------4p2p0--2-0h2p0-------------0--|| 
G-|---------------2--------1--------1----||
D-|------------------------2--4--2-------||
A-|---------------0-----------2----------||
E-|--0---------------------------0-------||

Добавлено: 14.10.2013
Другие материалы по этой песне:
  • Аккорды и текст

Страница создана 14.10.2013
http://primanota.ru/phil-keaggy/wedding-in-the-country-manor-chords.htm
Привет, Гость.
Предлагаем пройти революционный курс по гитаре.
Подарок от PrimaNota.Ru, забирай!