PrimaNota.ru - самый крупный в мире бесплатный архив песенных текстов, аккордов, табулатур и нот


Phil Keaggy - That Is What The Lord Will Do For You - таба, видео

Регистрация Запомнить меня
Войти через:  Facebook Google Twitter Vk Yandex Mail.ru

Phil Keaggy - That Is What The Lord Will Do For You - таба, видео

Печатать
Просмотров: 83
Уроки эстрадного вокала в Санкт-Петербурге
"That is what the Lord will do for you" by Phil Keaggy

(from the "What A Day" album)

Tablature by Russell Tasker 

Standard Tuning

Key: D major

Time: basically 4/4 [but some bars of 2/4,3/4 and 5/4!!]

Tempo: 126bpm

[4/4]
INTRO.

  G/B         F#m/A         Em/G        D/F#         C#dim/E  Bm/D
|-------15----------14----|-------12---------10----|-----9-------7---|
|----15----15----14----14-|----12----12---10----10-|---8---8---7---7-|
|-------------------------|------------------------|-----------------|
|-------------------------|------------------------|-----------------|
|-14----------12----------|-10----------9----------|-7-------5-------|
|-------------------------|------------------------|-----------------|


                                           [2/4]

  A/C#    G/B       F#m/A     G A7 G/B  D   A/C#
|-----5-------3---|-----2-----------------|------|
|---5---5---3---3-|---2---2---0--2--3--/7-|-5----|
|-----------------|-----------------------|------|
|-----------------|-----------------------|------|
|-4-------2-------|-0------------0--2--/5-|-4----|
|-----------------|-----------3-----------|------|


[4/4]

  D   Dmaj7   Gmaj7 G6       D   Dmaj7   Gmaj7 G6
|-2----2-----|-2----0------|-2----2-----|-2----0------||
|-3----2-----|-3----3------|-3----2-----|-3----3------||
|-2----2-----|-4----4------|-2----2-----|-4----4------||
|-0----0-----|-------------|-0----0-----|-------------||
|------------|-------------|------------|-------------||
|------------|-3----3------|------------|-3----3------||

VERSE 1:

D        Dmaj7 Gmaj7    G6
Winter's here, autumn's gone

F#m7  Bm7         Em9 A
      Leaves have fallen.

D        Dmaj7    Gmaj7    G6
It's the season before the dawn,

F#m7 Bm7        Em9 A
     Spring is calling.

D      Dmaj7        Gmaj7    G6
And as winter comes to an end,

F#m7  Bm7          Em9   A
     Spring brings life again.


[3/4]                     [4/4]

C     G     Bb     F       A
Born again, given life    anew


                                     D   Dmaj7
  That is what the Lord will do for you.
|-----------------------------------------|
|----------------------------0---2---3----|
|-------------------0----2----------------|
|------0---2---4--------------------------|
|--4--------------------------------------|
|-----------------------------------------|


Gmaj7    G6   F#m7   Bm7     Em9    A
Ooh_____________________     Ooh_______


VERSE 2:

D       Dmaj7    Gmaj7    G6
Just in case you haven't heard

F#m7      Bm7         Em9    A
   In the beginning was the Word

D       Dmaj7  Gmaj7    G6
And the Word   was with God

F#m7        Bm7     Em9  A
   And the Word was God.

D        Dmaj7   Gmaj7  G6
He gives life to all mankind,


F#m7 Bm7         Em9    A
  He gives sight to the blind.


[3/4]                        [4/4]

C       G     Bb     F       A
Able to see, able to start   a new


                                      [3/4]        [4/4]
                                       Bb  C       F
 life, and that is what He'll give to you and it's free
|------------------------------------------|
|-----------------------------0---2---3----|
|--------------------0----2----------------|
|-------0---2---4--------------------------|
|--4---------------------------------------|
|------------------------------------------|

BRIDGE:

[5/4]
Bb      C       C#dim7   Dm7
All you have to do is believe

[4/4]
   G#dim   A    Am7/G       Am7/F#
   That He      loves you   died for you, is

Fmaj7                    E  A  A7
ever more alive for you.


D  Dmaj7  Gmaj7  G6  F#m7  Bm7  Em9  A  F#m9 B  Gmaj7 A
                     Oooh______

GUITAR SOLO:

D    Dmaj7    Gmaj7    G6     F#m7     Bm7    Em9    A
D    Dmaj7    Gmaj7    G6     F#m7     Bm7    Em9    A

VERSE 3:

D         Dmaj7     Gmaj7    G6
There is something about the wind

F#m7   Bm7         Em9    A
      And how it blows.

D          Dmaj7     Gmaj7     G6
Where it's coming from and then


F#m7   Bm7     Em9    A
      where it goes.

D          Dmaj7          Gmaj7    G6
There's no doubt when you hear it

F#m7       Bm7               Em9          A
There's no doubt when you're born of the Spirit.

[3/4]                        [4/4]

C     G     Bb        F       A
Born again, given new life    anew


  That is what the Lord will do fo...
|-----------------------------------|
|----------------------------0---2--|
|-------------------0----2----------|
|------0---2---4--------------------|
|--4--------------------------------|
|-----------------------------------|

OUTRO:

  G/B         F#m/A         Em/G        D/F#         C#dim/E  Bm/D
..you
|-------15----------14----|-------12---------10----|-----9-------7---|
|----15----15----14----14-|----12----12---10----10-|---8---8---7---7-|
|-------------------------|------------------------|-----------------|
|-------------------------|------------------------|-----------------|
|-14----------12----------|-10----------9----------|-7-------5-------|
|-------------------------|------------------------|-----------------|


                                           [2/4]  [4/4]

  A/C#    G/B       F#m/A     G A7 G/B  D   A/C#   Dmaj7
|-----5-------3---|-----2-----------------|------|---2---||
|---5---5---3---3-|---2---2---0--2--3--/7-|-5----|---2---||
|-----------------|-----------------------|------|---2---||
|-----------------|-----------------------|------|---4---||
|-4-------2-------|-0------------0--2--/5-|-4----|---5---||
|-----------------|-----------3-----------|------|-------||
Добавлено: 09.09.2013
Другие материалы по этой песне:
  • Аккорды и текст

Страница создана 09.09.2013
http://primanota.ru/phil-keaggy/that-is-what-the-lord-will-do-for-you-chords.htm
Привет, Гость.
Предлагаем пройти революционный курс по гитаре.
Подарок от PrimaNota.Ru, забирай!