PrimaNota.ru - самый крупный в мире бесплатный архив песенных текстов, аккордов, табулатур и нот


Phil Keaggy - Tennessee Morning - таба, видео

Регистрация Запомнить меня
Войти через:  Facebook Google Twitter Vk Yandex Mail.ru

Phil Keaggy - Tennessee Morning - таба, видео

Печатать
Просмотров: 83
		   Tennessee Morning
Phil Keaggy
From ya-kob@juno.com

Section A

E--------------0----------5--4----2----
B-----------------4---2-----------0---
G----------1----------------------2----
D-------2-------------------------1----
A-----2---------------0-----------2----
E--0----------------------------------


E------------0---------------0--------
B---4-----4-----4-----------------4----
G------4-----------4---6----------6-----
D---------------------------------7-----
A----------------------0----------------
E---4-----------------------------7------

E--------------------------------------
B--5---------5---------5----------4---
G---------8-------8----------6----4---
D------9--------9---------4-------4----
A-------------------------------------
E--9-------------------6----------5---

E------------0------------5--4----2----
B---4-----4-----4-----------------0----
G------4----------4----6----------2---
D---------------------------------1----
A----------------------0----------2----
E---4----------------------------------

E--------------0----------5--4----2----
B-----------------4---2-----------0---
G----------1----------------------2----
D-------2-------------------------1----
A-----2---------------0-----------2----
E--0----------------------------------

E------------0---------------0--------
B---4-----4-----4-----------------7----
G------4-----------4---6----------8-----
D---------------------------------9-----
A----------------------0----------------
E---4-----------------------------7------

E--------4--7---4-----------0-------2h3p3p0-----
B---5h7-----------5------------4------------3---
G---4---------------6----------4------------0---
D---6--------------------4-----4------------4---
A---4-------------------------------------------
E--------------------6---------5------------3---

E-------------------------------------
B---7------9-------12-------------------
G---6------8-------9-------------------
D---7------9-------9-------------------
A------------------11-----------------
E---5------7--------0------------------

Section B

E------------------------0-----------
B---------------------7-----9---------
G------------------8-----------------
D-----------6-h-9----------------------
A------11\9-----------------------------
E--0----------------------------0-----

E--2h4--5-----0-----4-----------------
B-------3-----0-----0-----2---3p2p0----
G-------2-----2-----6-----------------
D-------4-----4-----7------------------
A-------2-----4-----0-----------------
E-------------2---------------------

E------------------------0-----------
B---------------------7-----9---------
G------------------8-----------------
D-----------6-h-9----------------------
A------11\9-----------------------------
E--0----------------------------0-----

E--2h4--5-----0----------4-----------------
B-------3-----0----------0------------------
G-------2-----2----------6-----------------
D-------4-----4----------7------------------
A-------2-----4----------0-----------------
E-------------2----------------------------

Chorus Line:

E------5---------------0-------------------------
B-----------------9----------5-------------------
G---/6-----------------------------2----1---------
D-------------/9-------------6-------------------
A----------------------------------4-----2--------
E-------------------------0----------------------


E------5---------------0-------------------------
B-----------------9----------5-------------------
G---/6-----------------------------2----1---------
D-------------/9-------------6-------------------
A----------------------------------4-----2--------
E-------------------------0----------------------


E------5---------------0-----0-----------0---------
B-----------------9----------0--------7-----------
G---/6-----------------------6------------------
D-------------/9-------------7-------------------
A------------------------0----------------------
E-----------------------------------------------

E------7---9-------0--------0-----0--------------
B---9---------8\7------1/2---------0-------------
G---8---------7\6------------------1----2---1----
D---9---------8\7------1/2-----------------------
A----------------------------------2----4---2----
E------------------------------0------------------

Section C

E-------------0---------------0-----------------------
B-------------0----2----------1-----------------------
G--1----------1-------2-1------2-----------------------
D----2--1-----2------------4--4-------4-6p4----4--6----
A----------4------------------0-------------7-----------
E-------------------------------------------------0---

E-------------0---------------0-----------------------
B-------------0----2----------1-----------------------
G--1----------1-------2-1------2-----------------------
D----2--1-----2------------4--4-------4-6p4----4------
A----------4------------------0-------------7-----------
E----------------------------------------------------

E---2--------------0-------------
B---2------------0---------------
G---3-----------6----------------
D---6-----------7-----------------
A---4-----------7------------------
E---2-----------5-------------------

To Chorus Line

        I'll leave it to you guys
how you want to piece all those
sections together.  Phil alternates
them during a concert, sometimes
starting with A, sometimes with C
he also weaves this in and out of
*When Night Falls*.  There's a lot
here to experiment with, so have
a ball.  No, have a Tennessee Morning.

        Jacob

"People say, "Why do you sing...?" Because it's the
most reiterated command in the whole Bible.  Also, this
is a lot easier than loving my enemies, so maybe I should
start with the easy stuff.  Maybe by the time I'm really old
I will have been able to tie the more complicated knot."  -- Rich Mullins
     
Добавлено: 24.10.2013
Другие материалы по этой песне:
  • Аккорды и текст

Страница создана 24.10.2013
http://primanota.ru/phil-keaggy/tennessee-morning-chords.htm
Привет, Гость.
Предлагаем пройти революционный курс по гитаре.
Подарок от PrimaNota.Ru, забирай!