PrimaNota.ru - самый крупный в мире бесплатный архив песенных текстов, аккордов, табулатур и нот


Phil Keaggy - Shes A Dancer - таба, видео

Регистрация Запомнить меня
Войти через:  Facebook Google Twitter Vk Yandex Mail.ru

Phil Keaggy - Shes A Dancer - таба, видео

Печатать
Просмотров: 89
		   She's a Dancer
Phil Keaggy

            A                 E/G#
She's a dancer, she loves to dance      
            F#m            D
She's a singer, she loves to sing
           F#m  Faug A/E      B7        D                     B7  E
She's a lady,       walking 'round in Mama's shoes
           A                  E/G#
She's amazing, she loves to amaze
           F#m                      D
She is waiting, she don't care to wait
      F#m    Faug  A/E       B7        D
In a hurry,         walking 'round in Mama's shoes
 B7           E         A
Standing tall in Mama's shoes


CHORUS
A7                      D                  E    F#m E/G#           A
Growing up to discover the things in life that ring true
                      C#7                   F#m
You share the name of your grandmother
                     B7                              D                  
E
And she'll be proud to see all the things you can do
A7                              D
As you reach for the sky, love
      E F#m E/G#              A
And pirouette 'cross the room
         C#7                              F#m
Just remember that you are mine, love
            B7             D                E          A
And no other can replace the face of you


BRIDGE
D/A   E/A       A          D/A        E/A   A
Great is your lord, and great is your reward
            C#7                         F#m
As you grow up to face the world
              B7                 D                 E      A
You are blessed, be a blessing, my little girl

        CHORD           EADGBE
        A               x02220
        E               022100
        D               xx0232
        E/G#            4x2400
        F#m             2xx222  (thumb, index finger bar)
        A7              x02020
        Faug            xx322x
        B7              x21202
        D/A             x04230
        E/A             x06450

        CATCHY PHRASES....

     She's a lady               Walking 'round in Mama's shoes....
E---------------------------------------------
B----------2----2------2-----0------3---------
G----------2----2------2-----2------2------------
D-------4-----3----2---------1-------0----------
A----------------------------2----------------
E----------------------------------------------

  Growing up to discover the things    in     life  that ring true...
E--0-----------2----------------------------------
B--2-----------3-----------------------------2---
G--0-----------2--------1-----2----4----------2---
D--2-----------0------------------------------2---
A--0------------------------------------------0---
E-----------------------0-----2----4---------------

  Just remember that you are mine, love...
E------------------------------------
B-----6-----------------------2------
G-----4-----------5--4\--2-----2-----
D-----6-----------------------------
A-----4------------------------------
E------------------------2-----------

        IMHO, this song just loses
so much when it's not played with
two guitars, like on the WBH album.
It's still a pretty song, though.  I especially
like the McCartney-esque melody in,
"Just remember that you are mine, love.."
Catchy...

        Jacob
     
Добавлено: 09.08.2013
Другие материалы по этой песне:
  • Аккорды и текст

Страница создана 09.08.2013
http://primanota.ru/phil-keaggy/shes-a-dancer-chords.htm
Привет, Гость.
Предлагаем пройти революционный курс по гитаре.
Подарок от PrimaNota.Ru, забирай!