PrimaNota.ru - самый крупный в мире бесплатный архив песенных текстов, аккордов, табулатур и нот


Phil Keaggy - Doin Nothing - таба, видео

Регистрация Запомнить меня
Войти через:  Facebook Google Twitter Vk Yandex Mail.ru

Phil Keaggy - Doin Nothing - таба, видео

Печатать
Просмотров: 116
Уроки эстрадного вокала в Санкт-Петербурге
		   Phil Keaggy
Opening to Doin' Nothing
From Blue (Crimson And Blue Limited edition Album)
Tabliture By Jonny Gifford
Sojorn@hotmail.com

Slide- >
hammer on- /
pull off- \
Bend up 1 step- "
Bend up half step'

---------------------------------------------------------------------------------------------
---------------------------------------------------------------------------------------------
--------------X X X X X X-------7-5/6----------------------------------------------------
 -------- 5/7  X X X X X X-- 7---7- 5---X-X---7------------------------------------------
-12>7---0---X X X X X X---7----------X-X---7-------5---3/4-0-------------------------
-12>7------------------------------------X-X-------1/2---2--------3\2-0------------------

--------------------------------9---9--------------------------------------------------------
--------------------------------8---8--------------------------------------------------------
-----5/6--------7--5/6---------9---9--------------------------------------------------------
--7--5----------7--5--- 7-7--  7---7--------------------------------------------------------
--7-----5>7--0---------7-7--- 0---0--------------------------------------------------------
--------3>5----------------------------------------------------------------------------------

----5-----------------------------------------------------------------------------------------
--8"--8\5-------------------------------------------------------------------------------------
----------7\5------7'------2/5\2--2-----------------------------------------------------------
-------------7\5------7/5-------5--5\2\0------------------------------------------------------
----------------7------------------------3\0-----3--0-----------------------------------------
---------------------------------------------3--0----------------------------------------------

Well, that's all I've got for now. If anyone has any other tabliture for any of the songs off of the Blue album then please send them my way.I'm also looking for the tab to The Happy Song by Delirious.
     
Добавлено: 30.06.2013
Другие материалы по этой песне:
  • Аккорды и текст

Страница создана 30.06.2013
http://primanota.ru/phil-keaggy/doin-nothing-chords.htm
Привет, Гость.
Предлагаем пройти революционный курс по гитаре.
Подарок от PrimaNota.Ru, забирай!