PrimaNota.ru - самый крупный в мире бесплатный архив песенных текстов, аккордов, табулатур и нот


Phil Keaggy - A Little Child In Everyones Heart - таба, видео

Регистрация Запомнить меня
Войти через:  Facebook Google Twitter Vk Yandex Mail.ru

Phil Keaggy - A Little Child In Everyones Heart - таба, видео

Печатать
Просмотров: 76
A Little Child (In Everyone's Heart)
Phil Keaggy


               *************

------7-----7----------------------|
------8-----8----------------------|
------7-----7----------------------|
------9-----9----------------------|
---7--------------------7--10------|
----------7-------7--10------------|
        *REPEAT*

        *********
        SECTION A
        *********

-----7------7-------7-------|
-----8------8-------8-------|
-----7------7-------7-------|
-----9------9-------9-------|
---7-------------7----------|
---------7--------------7---|


        Am      G        D

--/5-----5----5------5-----------|
--/6-----6----6------6-----------|
--/5-----5----5------5-----------|
------0-----------0--------------|
------------0-----------0--------|
---------------------------------|

        F           G          C


------2--------------------|
------0--------------------|
------2--------------------|
------1--------------------|
---2-----------------------|
--------------2--1---------|

        *********************

        (Repeat "A" above)

        Dm7                 G


        CHORUS

        C   Em   Am

        Cdim*     G

        C   Em    Am

        Cdim  G


-------------------------------|
---0-----1-----3/-12-----------|
-------------------------------|
-------------------------------|
---------0-----2/-10-----------|
---3---------------------------|

F

(la da da da daaaaa)
----------------------------|
----------------------1-----|
---2---0--------------------|
---3---2----3----2----------|
------------5----3----------|
----------------------------|

------2--------------------|
------0--------------------|
------2--------------------|
------1--------------------|
---2-----------------------|
--------------2--1---------|


        (Instrumental vamp, follow "A")


        (repeat)

END TAG             (hold)
----------------------------|
--0---1----3----1------1----|
----------------2-----0-----|
----------------3-----2-----|
------0----2----3-----3-----|
--3-------------1-----------|

        ***That really nasty Cdim Chord***

        EADGBE
        x3454x
Добавлено: 03.07.2012
Другие материалы по этой песне:
  • Аккорды и текст

Страница создана 03.07.2012
http://primanota.ru/phil-keaggy/a-little-child-in-everyones-heart-chords.htm
Привет, Гость.
Предлагаем пройти революционный курс по гитаре.
Подарок от PrimaNota.Ru, забирай!