PrimaNota.ru - самый крупный в мире бесплатный архив песенных текстов, аккордов, табулатур и нот


Phil Collins - I Missed Again - текст песни, бас-таба, видео

Регистрация Запомнить меня
Войти через:  Facebook Google Twitter Vk Yandex Mail.ru

Phil Collins - I Missed Again - текст песни, бас-таба, видео

Печатать
Просмотров: 53
Авторы музыки: Phil Collins
Авторы текста: Phil Collins
-------------------------------------------------------------------------------
                             I MISSED AGAIN - Phil Collins
-------------------------------------------------------------------------------
Tabbed by: WibbleWobble
E-mail: organisedchaos@talktalk.net

Tuning: standard EADG

From "Face Value" 1981
Bassist:  Alphonso Johnson

Actually the bass doesn't have too much to do - the horn section kind of takes over a bit.  Keep it nice though

00:00 - 00:37  THIS IS THE MAIN BASS PATTERN
G|---------------------------------------------------------------------------|
D|-----------3---------3-----------------------------------------------------|
A|--------4-----6---6--------------4--6--------------------------------------|
E|-6-4-6--------------------6-4-6--------------------------------------------|

00:38 - 00:47  "I'm waiting in line......"
G|---------------------------------------------------------------------------|
D|------0--2--4------2-4-----------------------------------------------------|
A|-2-2-----------2-2---------------------------------------------------------|
E|---------------------------------------------------------------------------|

00:48 - 01:13
G|---------------------------------------------------------------------------|
D|-----------3---------3-----------------------------------------------------|
A|--------4-----6---6--------------4--6--------------------------------------|
E|-6-4-6--------------------6-4-6--------------------------------------------|

01:14 - 01:22  "I'm waiting in line......"
G|---------------------------------------------------------------------------|
D|------0--2--4------2-4-----------------------------------------------------|
A|-2-2-----------2-2---------------------------------------------------------|
E|---------------------------------------------------------------------------|

01:25 - 01:41
G|---------------------------------------------------------------------------|
D|-----------3---------3-----------------------------------------------------|
A|--------4-----6---6--------------4--6--------------------------------------|
E|-6-4-6--------------------6-4-6--------------------------------------------|

BRIDGE  01:41 - 02:15
G|-----------------------8------------------------8--------------------------|
D|-----------------6--8----------------------6--8----------------------------|
A|-8----8----8--6--------------8---8----8-6------------9-9---9-8--6-6--------|
E|---8----8----------------------8----8--------------------9----------4-/16--|

G|---------------------------------------------------------------------------|
D|---------------------------------------------------------------------------|
A|---------------------------------------------------------------------------|
E|-6---6-6-6-6-6-6-6-6----10-10-10-10-10-10-10-------------------------------|

That's pretty much it the main riff,  etc plays again to finish.  

| /  slide up
| \  slide down
| h  hammer-on
| p  pull-off
| ~  vibrato
| +  harmonic
| x  Mute note
===============================================================================
Добавлено: 05.07.2015
Другие материалы по этой песне:
  • Аккорды и текст

Страница создана 25.03.2012
http://primanota.ru/phil-collins/i-missed-again-chords.htm
Привет, Гость.
Предлагаем пройти революционный курс по гитаре.
Подарок от PrimaNota.Ru, забирай!