PrimaNota.ru - самый крупный в мире бесплатный архив песенных текстов, аккордов, табулатур и нот


Phideaux - Never Gonna Go - таба, видео

Регистрация Запомнить меня
Войти через:  Facebook Google Twitter Vk Yandex Mail.ru

Phideaux - Never Gonna Go - таба, видео

Печатать
Просмотров: 76
                                          Artist - Phideaux
                                         *******************
                                       Song - Never Gonna Go
                                      ***********************
                                            Album - 313
                                           *************


Do all the Chords Barred


SOLO - Cm Eb Gm Eb 
*****  Cm Eb Gm Eb Bb X2  
                s         s                                       
[--8--s---11--11\13-11--11\13---rb--b--b--b--]
[----8\11----------------------10------------]
[--------------------------------------------]
[--------------------------------------------]
[--------------------------------------------]
[--------------------------------------------]

    s              s       rb  b  b  b
[--6\8---s----11-10\15----17-------------]
[-------8\11-----------16----------------]
[----------------------------------------]
[----------------------------------------]
[----------------------------------------]
[----------------------------------------]

                  s
[--8--s-----11--13\18-----------------------]
[----8\11-------------16---rb--b--b--b--13--]
[-------------------------14----------------]
[-------------------------------------------]
[-------------------------------------------]
[-------------------------------------------]


00:41          |-----------------------------repeat 3 times from here|
[---------------------------------------------------------------------]
[---------------------------------------------------------------------]
[----s--------s--------s----------------------------------------------]
[--15\10----10\13----13\17----13--12--10------------------------------]
[---------------------------------------------------------------------]
[---------------------------------------------------------------------]

PIANO CHORDS
*************
Cm Eb Fm Eb Bb X2
 
Cm        Eb          Gm          Eb      Bb         Cm
day down, a day away, a day away, One Day down a day away
      Eb          Gm    Eb      Bb         Cm
A day away, a day away, One Day down a day away
      Eb          Gm    Eb      Bb         Cm
A day away, a day away, One Day down a day away


Verse 1
********
           Eb                 Fm    Eb          Bb        Cm
In Quentin Quick's cathedral, I was ensnared by something evil
             Eb                  Fm       Eb       Fm
And snatched into the spotlight, A god to fool the people
Cm                Eb          Gm    Eb        Cm
I'm stuck in this tomb - Everyday - I'm never gonna get away
                    Eb                Gm              Eb        Cm
I don't like what I do - I don't like what I say, but I'm never gonna get away


Verse 2
********  
               Eb                 Fm     Eb     Bb     Cm
I can't be the one to free them - I am a puppet of the Priests
           Eb                      Fm        Eb     Bb    Cm
There's no escape, they trapped me like some domesticated beast
              Eb                Gm     Eb        Bb       Cm
But something stirs inside me - An appetite that wants to feast
     Eb                   Gm      Eb     Bb   Cm
Some accidental transfer      and I have been unleashed




Gm    Bb    Fm           Cm
          Ahhh.I will be released

Gm Bb Fm Cm Gm

 Bb
The times they are a'changing


02:20
STRINGS
********
Eb F# Bb  F# C#
Eb F# G#m F# C#

Eb F# Bb  F# C#


Eb              F#          G#m
day down, a day away, a day away
F#           C#        Eb
You're never gonna get away, 
F#
You know I know it's over
           C#  Eb
And I will be okay
  F#                 G#m
I know you know it's over
     F#    C#     Eb
Will never be the same
  F#               Bb
I know I know it's over
    F#     C#   Eb
But I will rise again
    F#                 G#m
You know although it's over
     F#    C# Eb
I'll never go away   SOLO - 03:15
                    ******
F#           C#
   day away, day away
    F#       Eb
I,m gonna go away
F#           G#m
   day away, day away
F#     C# Eb
I will be okay
F#           Bb
   day away, day away
F#        C#       Eb
I'm never gonna go away


03:15
SOLO
*****                            rb
[--10---s---14-16-14-16--br--b--13---rb--]
[-----10\14-------------13----------13---]
[----------------------------------------]
[----------------------------------------]
[----------------------------------------]
[----------------------------------------]

                 s
[--10---s---14-13\18--14-16-14-18--14-16-14-13-14--]
[-----10\14----------------------------------------]
[--------------------------------------------------]
[--------------------------------------------------]
[--------------------------------------------------]
[--------------------------------------------------]

                    s               s    s         s
[--10---s---14-16-16\21--18-13-14-10\-6-4\9-11-----\--]
[-----10\14-------------------------------------------]
[-----------------------------------------------------]
[-----------------------------------------------------]
[-----------------------------------------------------]
[-----------------------------------------------------]
Добавлено: 15.07.2013
Другие материалы по этой песне:
  • Аккорды и текст

Страница создана 15.07.2013
http://primanota.ru/phideaux/never-gonna-go-chords.htm
Привет, Гость.
Предлагаем пройти революционный курс по гитаре.
Подарок от PrimaNota.Ru, забирай!