PrimaNota.ru - самый крупный в мире бесплатный архив песенных текстов, аккордов, табулатур и нот


Pharoahe Monche - Book Of Judges - таба, видео

Регистрация Запомнить меня
Войти через:  Facebook Google Twitter Vk Yandex Mail.ru

Pharoahe Monche - Book Of Judges - таба, видео

Печатать
Просмотров: 118
-------------------------------------------------------------------------------
                             Book of Judges - Pharoahe Monche
-------------------------------------------------------------------------------
Tabbed by:Uncle Foster
E-mail:Ihatemachines@gmail.com

Tuning:standart
Great guitar riff for great song.Pretty easy.
Only intro and chorus for now,soon will be verse and solo too.
Needed - overdrive/distortion,wah-wah for solo and verse.
Intro
e|-----------------------------------------------------------------------------|
B|-----------------------------------------------------------------------------|
G|-----------------------------------------------------------------------------|
D|--4-4---4-4-4---4-4-4---4-4-4------------------------------------------------|
A|--4-4---4-4-4---4-4-4---4-4-4------------------------------------------------|
E|--2-2---2-2-2---2-2-2---2-2-2------------------------------------------------|
Chorus
e|---------------------------------------------------------------------------|
B|---------------------------------------------------------------------------|
G|----------------2-----4--2--------------------4--2-------------------------|
D|--4-4---4-4--4--------------4------4-4---4-4--------4-----2----------------|
A|--4-4---4-4------------------------4-4---4-4-----------4-------------------|
E|--2-2---2-2------------------------2-2---2-2-------------------------------|
(Best way to play this chord is down-down down-down)

************************************

| /   slide up
| \   slide down
| h   hammer-on
| p   pull-off
| ~   vibrato
| +   harmonic
| x   Mute note
| b   Bend
| pb  Pre-bend
| br  Bend release
| pbr Pre-bend release
| brb Bend release bend

************************************
Добавлено: 21.05.2015
Вам также может быть интересно:
Другие материалы по этой песне:
  • Аккорды и текст

Страница создана 21.05.2015
http://primanota.ru/pharoahe-monche/book-of-judges-chords.htm
Привет, Гость.
Предлагаем пройти революционный курс по гитаре.
Подарок от PrimaNota.Ru, забирай!