PrimaNota.ru - самый крупный в мире бесплатный архив песенных текстов, аккордов, табулатур и нот


Phantom Plannet - California - таба, видео

Регистрация Запомнить меня
Войти через:  Facebook Google Twitter Vk Yandex Mail.ru

Phantom Plannet - California - таба, видео

Печатать
Просмотров: 81
artist : Phantom Plant
transcribted by: Chris Ward
This is a correction to the previous tab because it was flipped upside
down and was hard to read if you're accustomed to playing music the RIGHT
way.  Sorry about that.

Intro and Verse

         C#moll    A       E
E:  ------4--------0-------0-------------------------------
B:  ------5--------2-------0-------------------------------
G:  ------6--------2-------1-------------------------------
D:  ------6--------2-------2-------------------------------
A:  ------4--------0-------2-------------------------------
E:  ------4--------0-------0-------------------------------

Chorus

        E       A         C#       B
E:  ----0-------0---------4--------2------------------------
B:  ----0-------2---------6--------4------------------------
G:  ----1-------2---------6--------4------------------------
D:  ----2-------2---------6--------4------------------------
A:  ----2-------0---------4--------2------------------------
E:  ----0-------0---------4--------2------------------------

Solo

E:  -------------------------------------------------------
B:  ----- 1-- 1-----------1---1---------1----1--3-----
G:  -0-3--3---------0-3---3-----0--3----3-------3--
D:  -------------------------------------------------------
A:  -------------------------------------------------------
E:  -------------------------------------------------------

E:  -----------------------------------------------------
B:  -----------------------------------------------------
G:  -0-----------------0------0-----------------0-----
D:  ---3-3---1-1--1------------3-3--1-1---1------
A:  -----------------------------------------------------
E:  -----------------------------------------------------


CWard2005@aol.com




     
Добавлено: 17.09.2013
Другие материалы по этой песне:
  • Аккорды и текст

Страница создана 17.09.2013
http://primanota.ru/phantom-plannet/california-chords.htm
Привет, Гость.
Предлагаем пройти революционный курс по гитаре.
Подарок от PrimaNota.Ru, забирай!