PrimaNota.ru - самый крупный в мире бесплатный архив песенных текстов, аккордов, табулатур и нот


Pfr - Walk Away From Love - таба, видео

Регистрация Запомнить меня
Войти через:  Facebook Google Twitter Vk Yandex Mail.ru

Pfr - Walk Away From Love - таба, видео

Печатать
Просмотров: 69
		   Artist: PFR
Song Title: Walk away from love (taken from 'Goldie' album)
Written by: Joel Hansen
Transcribed by Nick Castle (ENGLAND) e-mail: 101337,22@compuserve.com
            and Mike Jett e-mail: GuitarsnJesus@juno.com
If this looks wierd copy and paste it to notepad.

--------------------------------------------------------------------
--------8----8~--------8----7~------7---6~--------------------------
--------7----7~--------7----6~------6---5~--------------------------
--------6----6~--------6----5~------5---4~---------------/5---------
--------7----7~--------7----6~------6---5~----------5-------7-------
--0-0------------0-0-----------0-0-----------5-6-7----7--------0h3p0


--------------------------------------------------------------------
--------8----8~--------8----7~------7---6~--------------------------
--------7----7~--------7----6~------6---5~--------------------------
--------6----6~--------6----5~------5---4~-----------------/5-------
--------7----7~--------7----6~------6---5~----------5---------7-----
--0-0------------0-0-----------0-0-----------5-6-7----7-6-----------



--------------------------------------------------------------------
--------------------------------------------------------------------
--------------------------------------------------------------------
----2-2------5-5------------7-7-------------------------------------
----2-2------5-5------------7-7-------------------------------------
----0-0------3-3------------5-5-------------5-6-7\------------------
  I know you     I know you doubt what I am saying


--------------------------------------------------------------------
--------------------------------------------------------------------
--------------------------------------------------------------------
---2-2-------------5-5-------------7-7-7------3---------------------
---2-2-------------5-5-------------7-7-7------3---------------------
--/0-0-------------3-3-------------5-5-5------1---------------------
  You think that I've been deceived 


--------------------------------------------------------------------
------------------------x-------------------------------------------
------------------------x-x-----------------------------------------
--2-2--------5-5--------x-x-7-7-------------------------------------
--2-2--------5-5----------x-7-7-------------------------------------
--0-0--------3-3------------5-5--------------5-6-7\-----------------
 To follow after what some call a weak man's haven


------------------------------------------5---5--5------------------
------------------------------------------5---5--5------------------
------------------------------------------6---6--6------------------
--2-2----------5-5---------------7-7------7---7--7------------------
--2-2----------5-5---------------7-7------7---7--7------------------
--0-0----------3-3---------------5-5--------------------------------
 It seems so simple that it's hard to believe oh..

CHORUS (strummed lightly)

------3--------5--------5-------------------------------------|
------3--------5--------5-----5~--5~-\--(3)---\--/------------|
------4--------6--------6-----4~--4~-\--(2)---\--/------------|
--------------------------------------------------------------|
--------------------------------------------------------------|
-0-0------0-0------0-0------------------------------0---------|

  (G)      (A)               (Eb)                        
I can't understand why you would walk away from love
  (G)       (A)               (Eb)                        
No I don't understand why you would walk away from love
   (G)       (A)                   (Eb)                        
Just can't understand why you would walk away from love
     (G)      (A)                (Eb)                          
I'll never understand why you would walk away from love.

Verse two (as verse one)
Maybe I'm right and He's waiting at the table
Maybe it happened when I saw it was my sin
Maybe He's waiting for a chance to show you true love
Maybe you'll never get this chance again

REPEAT CHORUS 

Bridge
------------------------------------------------------------------------
------------------------------------------------------------------------
------------------------------------------------------------------------
--9-9-----------9--------------12-12----------12------------------------
--9-9-----------9------9-------12-12----------12-----12-----------------
--7-7-11-7-----11-7---------10-10-14-10-------14-10---------------------
p.m.....................................................................

 I'm           a                  fool  
 I'm           a                  fool
 maybe you think I'm a fool for what I'm saying
 or maybe you're a fool to say you're a wise man 

------------------------------------------------------|-----------------
------------------------------------------------------|-4ah-~-----------
------------------------------------------------------|-----------------
--11-11--------11--------------10-10--------10--------|-----------------
--11-11--------11----11--------10-10--------10-----10-|--------2^-~-----
--9---9--13-9--13-9------------8---8-12-8---12-8------|-----------------
p.m.....................................................................

 G                 are                  you           (last time add
this)
 G                 are                  you
 maybe that's what I'd like to be
 either way you lose unless you meet with my king


Solo     (VERY tricky bit!!)     ^ = bend string up and down
                                 b = bend string up
				ah = artificial harmonic
				 p = pull-off
				 h = hammer-on
				 t = tap with index finger

-----------------------------------------------------------------------
----7~---10^-----------------------------------------------------------
--7-7~-------9ah~--9^ah------------------------------------------------
--7-7~-------------------7h9-~-----------------------0h2p0-------2p0---
---------------------------------7p0---5p0-----------------------------
-----------------------------------------------3p0----------3p0--------

			       (slight bend)
							      .....etc.
------------------------------(7)b----7b----(7)b-----7b-----7b---------
-------------7~--7~--7~~-------8b-----8b-----8b------8b-----8b---------
-----------7-7~--7~--7~~-----x-7b---x------x-7b----x------x------------
-----------7-7~--7~--7~~---x-x----x-x----x-x-----x-x----x-x------------
-----------5---------------x------x------x-------x------x--------------
--3p0--(0)-------------------------------------------------------------


------------------------------7-----------------------8b~--~-----------
--10-9-8-------------------8b-8-------------7h8p7----------------------
-----------9-8-7-----------------7~---7h9p7-------7--------------------
-------------------9-8-7-----------------------------------------------
-----------------------------------------------------------------------
-----------------------------------------------------------------------



Repeat chorus chords a few times.

End solo

-----------------------------------------------------------------------
-4ah~--2b--2bp0-------------------------------------3-/-5-\-3-/-5-\-3--
-------------------4~---4p2--2ah~--2p0--------------2-/-4-\-2-/-4-\-2--
----------------------------------------4p2p0-(0)----------------------
-----------------------------------------------------------------------
-----------------------------------------------------------------------

--------------12-12-12-12----------------------------------------------
-/-5-/-8-8--/---------------10bp(8)---10bp(8)------8---10ah~-----8-----
-/-4-/-7-7--------------------------9---------9--x-----------9---------
-----------------------------------------------------------------------
-----------------------------------------------------------------------
-----------------------------------------------------------------------

-----------------------------------------------------------------------
-----------------------------------------------------------------------
-9--7------------------------------------------------------------------
-----------------------------------------------------------------------
-------7~~------t7p9t7p9t7p9t7p9t7p9t7p9t7p9\----2b-(slow bend)~~~~----
-----------------------------------------------------------------------
CD PLAYER(3:05) I'll never understand why would walk away from love...

-----------------------------------------------------------------------
----7b----7b~---7b-----------------------------------------------------
-7b-7b~-7b-7b~--7b-7b--------------------------7-----------------------
-7b----7b-----------7b---------------------7-9---9b~-9p7---------------
------------------------7---7-7h10p7--7-10---------------10ah~--7------
-----------------------------------------------------------------------
(bend out of order)

----9b-7h9p7-----------------------------------------------------------
-------------8~----------------9b~------------7~--7~-\-----------------
-----------------9--7----9b~b--9b~-(9)~-------7~--7~-\-----------------
----------------------9--9b~b--9b~-----(9)~---7~--7~-\-----------------
-7---------------------------------------------------------------------
-----------------------------------------------------------------------
			(Bend all weird)
ENJOY!!

Wew!! It took so long to make corrections to the this song!! Anyway Joel 
uses a classic fender telecaster to get that extra twang on the solos. As

far as solo composition he uses a pentatonic scale in the key of B and 
also in the key of F# The rest believe it or not is just bended cords.
If you enjoy this song and like my tabbing e-mail me!!

Mike Jett GuitarsnJesus@juno.com

(c) 1993 Carrers-BMG Music Publishing, Inc. and Sparrow Song 
(a div. of the sparrow corp.) /Line Drive Music. 

from Nick Castle
    &Mike Jett     
Добавлено: 21.10.2013
Вам также может быть интересно:
Другие материалы по этой песне:
  • Аккорды и текст

Страница создана 21.10.2013
http://primanota.ru/pfr/walk-away-from-love-chords.htm
Привет, Гость.
Предлагаем пройти революционный курс по гитаре.
Подарок от PrimaNota.Ru, забирай!