PrimaNota.ru - самый крупный в мире бесплатный архив песенных текстов, аккордов, табулатур и нот


Pfr - Wait For The Sun - таба, видео

Регистрация Запомнить меня
Войти через:  Facebook Google Twitter Vk Yandex Mail.ru

Pfr - Wait For The Sun - таба, видео

Печатать
Просмотров: 80
Уроки эстрадного вокала в Санкт-Петербурге
		   Wait for the Sun
Pfr
Tabbed by Jed Carson
jclgreat@juno.com
members.xoom.com/jclg/jed.html

Intro/Pre Chorus						     1.=============
----------------0---------------------------------0------------0--------------
----------3------------------3--------------3----------------3---3------------
------0-----0----------0---0---0--------0-----0----------0---------0----------
----4---4-----4------4---4-------4----4---4-----4------4---4------------------
-------------------0----------------2----------------4/-gradual----5----------
--3------------------------------------------------------slide----------------

  2.==============
--0---------------------------------------------------------------------------
--0---------------------------------------------------------------------------
--9---------------------------------------------------------------------------
--9---------------------------------------------------------------------------
--7---------------------------------------------------------------------------
--0---------------------------------------------------------------------------

Verse
Gtr2
  G    F#m			  Em F
--3----2----3----2----0----0/1----0----0/1------------------------------------
--3----2----3----2----0----0/1----0----0/1------------------------------------
--4----2----4----2----0----0/2----0----0/2------------------------------------
--5----4----5----4----2----2/3----2----2/3------------------------------------
--5----4----5----4----2----2/3----2----2/3------------------------------------
--3----2----3----2----0----0/1----0----0/1------------------------------------

Gtr1 use in coordination with Gtr2 parts

 G		    F#m		  Em F
-------3--------------2----------0h1------------------------------------------
-----3---3---3------3---3---3----0h1------------------------------------------
---0-------0------0-------0---------------------------------------------------
-0--------------0-------------------------------------------------------------
------------------------------------------------------------------------------
------------------------------------------------------------------------------

Chorus
---2---0-0-0----3--3--3--3----0--0-0-0--0-0-----------------------------------
---3---3-3-3----3--3--3--3----2--2-3-3--3-2-----------------------------------
---3---2-2-2----0--0--0--0----2--2-2-2--2-2-----------------------------------
---0---0-0-0----0--0--0--0----2--2-2-2--2-2-----------------------------------
----------------2--2--2--2----0--0-0-0--0-0-----------------------------------
----------------3--3--3--3----------------------------------------------------

Post Chorus
-2----3----0--------2---------0-----------------------------------------------
-3----3----2--------3---------0-----------------------------------------------
-4----4----2--------4---------4-----------------------------------------------
-4----5----2--------4---------2-----------------------------------------------
-2----5----0--------2---------------------------------------------------------
------3-----------------------------------------------------------------------

Solo backing chords
--2--3--0---------------------------------------------------------------------
--3--3--2---------------------------------------------------------------------
--2--0--2---------------------------------------------------------------------
--0--0--2---------------------------------------------------------------------
-----2--0---------------------------------------------------------------------
-----3------------------------------------------------------------------------

Interlude
------------------------------------------------------------------------------
------------------------------------------------------------------------------
------------------------------------------------------------------------------
------------------------------------------------------------------------------
-------------------1-1--1--1-1-1----3-3--3--3--3--3--3--1--3--1---------------
--1-1--1--1-1-1---------------------------------------------------------------

      @
Use these chords with above bass line
These twice

------------------------------------------------------------------------------
--6---------------------------------------------------------------------------
--5--7--9---------------------------------------------------------------------
--7--8--10--------------------------------------------------------------------
--8--8--10--------------------------------------------------------------------
-----6--8---------------------------------------------------------------------

Then these 3x

------------------------------------------------------------------------------
------------------------------------------------------------------------------
-----3--5---------------------------------------------------------------------
--3--3--5---------------------------------------------------------------------
--3--1--3---------------------------------------------------------------------
--1---------------------------------------------------------------------------

Outro

------------------------------------------------------------------------------
--6--5--3--1------------------------------------------------------------------
--7--5--3--2------------------------------------------------------------------
--7--5--3--3------------------------------------------------------------------
--5--3--1--3------------------------------------------------------------------
-----------1------------------------------------------------------------------
     
Добавлено: 18.10.2013
Другие материалы по этой песне:
  • Аккорды и текст

Страница создана 18.10.2013
http://primanota.ru/pfr/wait-for-the-sun-chords.htm
Привет, Гость.
Предлагаем пройти революционный курс по гитаре.
Подарок от PrimaNota.Ru, забирай!