PrimaNota.ru - самый крупный в мире бесплатный архив песенных текстов, аккордов, табулатур и нот


Pfr - Pray For Rain - таба, видео

Регистрация Запомнить меня
Войти через:  Facebook Google Twitter Vk Yandex Mail.ru

Pfr - Pray For Rain - таба, видео

Печатать
Просмотров: 87
		   PFR
Pray for Rain
Pray for Rain
Tab by Jed
jclgreat@juno.com


Intro
  E
----------------4--0-----------------------------------------------------
-----
--5--4--5--2----------0-------0--------5--4--0---------------------------
-----
-------------------------2----1/2/4--------------------------------------
-----
-------------------------------------------------------------------------
-----
-------------------------------------------------------------------------
-----
-------------------------------------------------------------------------
-----

Verse
  C#m       A         G#m     B       F#m         A         G#m       B
-------------------------------------------------------------------------
-------
-------5---------2---------4---------4-------2---------2---------4-------
--4----
-------6---------2---------4---------4-------2---------2---------4-------
--4----
-------6---------2---------6---------4-------4---------2---------6-------
--4----
--4---------0--------------6----2------------4----0--------------6----2--
-------
----------------------4-----------------2-------------------4------------
-------


 C#m       A         G#m       B             F#        A        
-------------------------------------------------------------------------
-----
------5---------2---------4---------4------------------------------------
-----
------6---------2---------4---------4------------------------------------
-----
------6---------2---------6---------4----4----4----7---------------------
-----
-4---------0--------------6----2---------4----4----7--------/12-12-12-12-
-----
---------------------4-------------------2----2----5---------------------
-----


Chorus ?

Post Chorus
A         E                       F#
And the rain comes in the nick of time
          A              E
I swallow hard cause my throat's been dry
                                                                                                        


Bridge 2x
palm mute throughout except 2nd time pound the A5 power chord without
muting
all sixteenth notes
each note represents a power chord
-------------------------------------------------------------------------
-----
-------------------------------------------------------------------------
-----
-------------------------------------------------------------------------
-----
-------------------------------------------------------------------------
-----
-------------------------------------------------------------------------
-----
--1-1-1-1-1-1-1-1-1-1-1-1-1-1-1-1--3-3-3-3-3-3-3-3-3-3-3-3-3-3-3-3-3-----
-----



-------------------------------------------------------------------------
-----
-------------------------------------------------------------------------
-----
-------------------------------------------------------------------------
-----
-------------------------------------------------------------------------
-----
-------------------------------------------------------------------------
-----
--1-1-1-1-1-1-1-1-1-1-1-1-1-1-1-1--5-5-5-5-5-5-5-5-5-5-5-5-5-5-5-5-5-----
-----
     
Добавлено: 24.10.2013
Другие материалы по этой песне:
  • Аккорды и текст

Страница создана 24.10.2013
http://primanota.ru/pfr/pray-for-rain-chords.htm
Привет, Гость.
Предлагаем пройти революционный курс по гитаре.
Подарок от PrimaNota.Ru, забирай!